  0
SECTION
  2
HEADER
  9
$ACADVER
  1
AC1021
  9
$ACADMAINTVER
 70
    25
  9
$DWGCODEPAGE
  3
ANSI_1251
  9
$INSBASE
 10
0.0
 20
0.0
 30
0.0
  9
$EXTMIN
 10
1.000000000000000E+20
 20
1.000000000000000E+20
 30
1.000000000000000E+20
  9
$EXTMAX
 10
-1.000000000000000E+20
 20
-1.000000000000000E+20
 30
-1.000000000000000E+20
  9
$LIMMIN
 10
0.0
 20
0.0
  9
$LIMMAX
 10
420.0
 20
297.0
  9
$ORTHOMODE
 70
     0
  9
$REGENMODE
 70
     1
  9
$FILLMODE
 70
     1
  9
$QTEXTMODE
 70
     0
  9
$MIRRTEXT
 70
     1
  9
$LTSCALE
 40
1.0
  9
$ATTMODE
 70
     1
  9
$TEXTSIZE
 40
2.5
  9
$TRACEWID
 40
1.0
  9
$TEXTSTYLE
  7
Standard
  9
$CLAYER
  8
0
  9
$CELTYPE
  6
ByLayer
  9
$CECOLOR
 62
   256
  9
$CELTSCALE
 40
1.0
  9
$DISPSILH
 70
     0
  9
$DIMSCALE
 40
1.0
  9
$DIMASZ
 40
2.5
  9
$DIMEXO
 40
0.625
  9
$DIMDLI
 40
3.75
  9
$DIMRND
 40
0.0
  9
$DIMDLE
 40
0.0
  9
$DIMEXE
 40
1.25
  9
$DIMTP
 40
0.0
  9
$DIMTM
 40
0.0
  9
$DIMTXT
 40
2.5
  9
$DIMCEN
 40
2.5
  9
$DIMTSZ
 40
0.0
  9
$DIMTOL
 70
     0
  9
$DIMLIM
 70
     0
  9
$DIMTIH
 70
     0
  9
$DIMTOH
 70
     0
  9
$DIMSE1
 70
     0
  9
$DIMSE2
 70
     0
  9
$DIMTAD
 70
     1
  9
$DIMZIN
 70
     8
  9
$DIMBLK
  1

  9
$DIMASO
 70
     1
  9
$DIMSHO
 70
     1
  9
$DIMPOST
  1

  9
$DIMAPOST
  1

  9
$DIMALT
 70
     0
  9
$DIMALTD
 70
     3
  9
$DIMALTF
 40
0.03937007874016
  9
$DIMLFAC
 40
1.0
  9
$DIMTOFL
 70
     1
  9
$DIMTVP
 40
0.0
  9
$DIMTIX
 70
     0
  9
$DIMSOXD
 70
     0
  9
$DIMSAH
 70
     0
  9
$DIMBLK1
  1

  9
$DIMBLK2
  1

  9
$DIMSTYLE
  2
ISO-25
  9
$DIMCLRD
 70
     0
  9
$DIMCLRE
 70
     0
  9
$DIMCLRT
 70
     0
  9
$DIMTFAC
 40
1.0
  9
$DIMGAP
 40
0.625
  9
$DIMJUST
 70
     0
  9
$DIMSD1
 70
     0
  9
$DIMSD2
 70
     0
  9
$DIMTOLJ
 70
     0
  9
$DIMTZIN
 70
     8
  9
$DIMALTZ
 70
     0
  9
$DIMALTTZ
 70
     0
  9
$DIMUPT
 70
     0
  9
$DIMDEC
 70
     2
  9
$DIMTDEC
 70
     2
  9
$DIMALTU
 70
     2
  9
$DIMALTTD
 70
     3
  9
$DIMTXSTY
  7
Standard
  9
$DIMAUNIT
 70
     0
  9
$DIMADEC
 70
     0
  9
$DIMALTRND
 40
0.0
  9
$DIMAZIN
 70
     0
  9
$DIMDSEP
 70
    44
  9
$DIMATFIT
 70
     3
  9
$DIMFRAC
 70
     0
  9
$DIMLDRBLK
  1

  9
$DIMLUNIT
 70
     2
  9
$DIMLWD
 70
    -2
  9
$DIMLWE
 70
    -2
  9
$DIMTMOVE
 70
     0
  9
$DIMFXL
 40
1.0
  9
$DIMFXLON
 70
     0
  9
$DIMJOGANG
 40
0.7853981633974483
  9
$DIMTFILL
 70
     0
  9
$DIMTFILLCLR
 70
     0
  9
$DIMARCSYM
 70
     0
  9
$DIMLTYPE
  6

  9
$DIMLTEX1
  6

  9
$DIMLTEX2
  6

  9
$LUNITS
 70
     2
  9
$LUPREC
 70
     4
  9
$SKETCHINC
 40
1.0
  9
$FILLETRAD
 40
10.0
  9
$AUNITS
 70
     0
  9
$AUPREC
 70
     0
  9
$MENU
  1
.
  9
$ELEVATION
 40
0.0
  9
$PELEVATION
 40
0.0
  9
$THICKNESS
 40
0.0
  9
$LIMCHECK
 70
     0
  9
$CHAMFERA
 40
10.0
  9
$CHAMFERB
 40
10.0
  9
$CHAMFERC
 40
20.0
  9
$CHAMFERD
 40
0.0
  9
$SKPOLY
 70
     0
  9
$TDCREATE
 40
2455930.053048854
  9
$TDUCREATE
 40
2455929.803048854
  9
$TDUPDATE
 40
2455930.053048866
  9
$TDUUPDATE
 40
2455929.803048866
  9
$TDINDWG
 40
0.0000000116
  9
$TDUSRTIMER
 40
0.0000000116
  9
$USRTIMER
 70
     1
  9
$ANGBASE
 50
0.0
  9
$ANGDIR
 70
     0
  9
$PDMODE
 70
     0
  9
$PDSIZE
 40
0.0
  9
$PLINEWID
 40
0.0
  9
$SPLFRAME
 70
     0
  9
$SPLINETYPE
 70
     6
  9
$SPLINESEGS
 70
     8
  9
$HANDSEED
  5
288
  9
$SURFTAB1
 70
     6
  9
$SURFTAB2
 70
     6
  9
$SURFTYPE
 70
     6
  9
$SURFU
 70
     6
  9
$SURFV
 70
     6
  9
$UCSBASE
  2

  9
$UCSNAME
  2

  9
$UCSORG
 10
0.0
 20
0.0
 30
0.0
  9
$UCSXDIR
 10
1.0
 20
0.0
 30
0.0
  9
$UCSYDIR
 10
0.0
 20
1.0
 30
0.0
  9
$UCSORTHOREF
  2

  9
$UCSORTHOVIEW
 70
     0
  9
$UCSORGTOP
 10
0.0
 20
0.0
 30
0.0
  9
$UCSORGBOTTOM
 10
0.0
 20
0.0
 30
0.0
  9
$UCSORGLEFT
 10
0.0
 20
0.0
 30
0.0
  9
$UCSORGRIGHT
 10
0.0
 20
0.0
 30
0.0
  9
$UCSORGFRONT
 10
0.0
 20
0.0
 30
0.0
  9
$UCSORGBACK
 10
0.0
 20
0.0
 30
0.0
  9
$PUCSBASE
  2

  9
$PUCSNAME
  2

  9
$PUCSORG
 10
0.0
 20
0.0
 30
0.0
  9
$PUCSXDIR
 10
1.0
 20
0.0
 30
0.0
  9
$PUCSYDIR
 10
0.0
 20
1.0
 30
0.0
  9
$PUCSORTHOREF
  2

  9
$PUCSORTHOVIEW
 70
     0
  9
$PUCSORGTOP
 10
0.0
 20
0.0
 30
0.0
  9
$PUCSORGBOTTOM
 10
0.0
 20
0.0
 30
0.0
  9
$PUCSORGLEFT
 10
0.0
 20
0.0
 30
0.0
  9
$PUCSORGRIGHT
 10
0.0
 20
0.0
 30
0.0
  9
$PUCSORGFRONT
 10
0.0
 20
0.0
 30
0.0
  9
$PUCSORGBACK
 10
0.0
 20
0.0
 30
0.0
  9
$USERI1
 70
     0
  9
$USERI2
 70
     0
  9
$USERI3
 70
     0
  9
$USERI4
 70
     0
  9
$USERI5
 70
     0
  9
$USERR1
 40
0.0
  9
$USERR2
 40
0.0
  9
$USERR3
 40
0.0
  9
$USERR4
 40
0.0
  9
$USERR5
 40
0.0
  9
$WORLDVIEW
 70
     1
  9
$SHADEDGE
 70
     3
  9
$SHADEDIF
 70
    70
  9
$TILEMODE
 70
     1
  9
$MAXACTVP
 70
    64
  9
$PINSBASE
 10
0.0
 20
0.0
 30
0.0
  9
$PLIMCHECK
 70
     0
  9
$PEXTMIN
 10
1.000000000000000E+20
 20
1.000000000000000E+20
 30
1.000000000000000E+20
  9
$PEXTMAX
 10
-1.000000000000000E+20
 20
-1.000000000000000E+20
 30
-1.000000000000000E+20
  9
$PLIMMIN
 10
0.0
 20
0.0
  9
$PLIMMAX
 10
420.0
 20
297.0
  9
$UNITMODE
 70
     0
  9
$VISRETAIN
 70
     1
  9
$PLINEGEN
 70
     0
  9
$PSLTSCALE
 70
     1
  9
$TREEDEPTH
 70
  3020
  9
$CMLSTYLE
  2
Standard
  9
$CMLJUST
 70
     0
  9
$CMLSCALE
 40
20.0
  9
$PROXYGRAPHICS
 70
     1
  9
$MEASUREMENT
 70
     1
  9
$CELWEIGHT
370
    -1
  9
$ENDCAPS
280
     0
  9
$JOINSTYLE
280
     0
  9
$LWDISPLAY
290
     0
  9
$INSUNITS
 70
     4
  9
$HYPERLINKBASE
  1

  9
$STYLESHEET
  1

  9
$XEDIT
290
     1
  9
$CEPSNTYPE
380
     0
  9
$PSTYLEMODE
290
     1
  9
$FINGERPRINTGUID
  2
{30394B8C-9BE0-4BB2-91EE-2F71D48A8E88}
  9
$VERSIONGUID
  2
{FAEB1C32-E019-11D5-929B-00C0DF256EC4}
  9
$EXTNAMES
290
     1
  9
$PSVPSCALE
 40
0.0
  9
$OLESTARTUP
290
     0
  9
$SORTENTS
280
   127
  9
$INDEXCTL
280
     0
  9
$HIDETEXT
280
     1
  9
$XCLIPFRAME
290
     0
  9
$HALOGAP
280
     0
  9
$OBSCOLOR
 70
   257
  9
$OBSLTYPE
280
     0
  9
$INTERSECTIONDISPLAY
280
     0
  9
$INTERSECTIONCOLOR
 70
   257
  9
$DIMASSOC
280
     2
  9
$PROJECTNAME
  1

  9
$CAMERADISPLAY
290
     0
  9
$LENSLENGTH
 40
50.0
  9
$CAMERAHEIGHT
 40
0.0
  9
$STEPSPERSEC
 40
2.0
  9
$STEPSIZE
 40
6.0
  9
$3DDWFPREC
 40
2.0
  9
$PSOLWIDTH
 40
5.0
  9
$PSOLHEIGHT
 40
80.0
  9
$LOFTANG1
 40
1.570796326794897
  9
$LOFTANG2
 40
1.570796326794897
  9
$LOFTMAG1
 40
0.0
  9
$LOFTMAG2
 40
0.0
  9
$LOFTPARAM
 70
     7
  9
$LOFTNORMALS
280
     1
  9
$LATITUDE
 40
37.795
  9
$LONGITUDE
 40
-122.394
  9
$NORTHDIRECTION
 40
0.0
  9
$TIMEZONE
 70
 -8000
  9
$LIGHTGLYPHDISPLAY
280
     1
  9
$TILEMODELIGHTSYNCH
280
     1
  9
$SOLIDHIST
280
     1
  9
$SHOWHIST
280
     1
  9
$DWFFRAME
280
     2
  9
$DGNFRAME
280
     2
  9
$REALWORLDSCALE
290
     1
  9
$INTERFERECOLOR
 62
   256
  9
$CSHADOW
280
     0
  9
$SHADOWPLANELOCATION
 40
0.0
  0
ENDSEC
  0
SECTION
  2
CLASSES
  0
CLASS
  1
ACDBDICTIONARYWDFLT
  2
AcDbDictionaryWithDefault
  3
ObjectDBX Classes
 90
        0
 91
        3
280
     0
281
     0
  0
CLASS
  1
VISUALSTYLE
  2
AcDbVisualStyle
  3
ObjectDBX Classes
 90
     4095
 91
        3
280
     0
281
     0
  0
CLASS
  1
SCALE
  2
AcDbScale
  3
ObjectDBX Classes
 90
     1153
 91
        3
280
     0
281
     0
  0
ENDSEC
  0
SECTION
  2
TABLES
  0
TABLE
  2
VPORT
  5
8
330
0
100
AcDbSymbolTable
 70
     1
  0
VPORT
  5
29
330
8
100
AcDbSymbolTableRecord
100
AcDbViewportTableRecord
  2
*Active
 70
     0
 10
0.0
 20
0.0
 11
1.0
 21
1.0
 12
344.1869158878504
 22
148.5
 13
0.0
 23
0.0
 14
10.0
 24
10.0
 15
10.0
 25
10.0
 16
0.0
 26
0.0
 36
1.0
 17
0.0
 27
0.0
 37
0.0
 40
297.0
 41
1.972972972850329
 42
50.0
 43
0.0
 44
0.0
 50
0.0
 51
0.0
 71
     0
 72
   100
 73
     1
 74
     3
 75
     0
 76
     0
 77
     0
 78
     0
281
     0
 65
     1
110
0.0
120
0.0
130
0.0
111
1.0
121
0.0
131
0.0
112
0.0
122
1.0
132
0.0
 79
     0
146
0.0
 60
     3
 61
     5
292
     1
282
     1
141
0.0
142
0.0
 63
   256
  0
ENDTAB
  0
TABLE
  2
LTYPE
  5
5
330
0
100
AcDbSymbolTable
 70
     5
  0
LTYPE
  5
14
330
5
100
AcDbSymbolTableRecord
100
AcDbLinetypeTableRecord
  2
ByBlock
 70
     0
  3

 72
    65
 73
     0
 40
0.0
  0
LTYPE
  5
15
330
5
100
AcDbSymbolTableRecord
100
AcDbLinetypeTableRecord
  2
ByLayer
 70
     0
  3

 72
    65
 73
     0
 40
0.0
  0
LTYPE
  5
16
330
5
100
AcDbSymbolTableRecord
100
AcDbLinetypeTableRecord
  2
Continuous
 70
     0
  3
Solid line
 72
    65
 73
     0
 40
0.0
  0
LTYPE
  5
61
330
5
100
AcDbSymbolTableRecord
100
AcDbLinetypeTableRecord
  2
K5LT_THIN
 70
     0
  3

 72
    65
 73
     0
 40
0.0
  0
LTYPE
  5
BD
330
5
100
AcDbSymbolTableRecord
100
AcDbLinetypeTableRecord
  2
K5LT32768
 70
     0
  3

 72
    65
 73
     0
 40
0.0
  0
LTYPE
  5
C4
330
5
100
AcDbSymbolTableRecord
100
AcDbLinetypeTableRecord
  2
K5LT32769
 70
     0
  3

 72
    65
 73
     0
 40
0.0
  0
LTYPE
  5
152
330
5
100
AcDbSymbolTableRecord
100
AcDbLinetypeTableRecord
  2
K5LT32770
 70
     0
  3

 72
    65
 73
     0
 40
0.0
  0
ENDTAB
  0
TABLE
  2
LAYER
  5
2
330
0
100
AcDbSymbolTable
 70
     3
  0
LAYER
  5
10
330
2
100
AcDbSymbolTableRecord
100
AcDbLayerTableRecord
  2
0
 70
     0
 62
     7
  6
Continuous
370
    -3
390
F
347
0
  0
LAYER
  5
5E
330
2
100
AcDbSymbolTableRecord
100
AcDbLayerTableRecord
  2
0 (1)
 70
     0
 62
     7
  6
Continuous
370
    -3
390
F
347
0
  0
LAYER
  5
5F
330
2
100
AcDbSymbolTableRecord
100
AcDbLayerTableRecord
  2
0 (1) (1)
 70
     0
 62
     7
  6
Continuous
370
    -3
390
F
347
0
  0
ENDTAB
  0
TABLE
  2
STYLE
  5
3
330
0
100
AcDbSymbolTable
 70
     1
  0
STYLE
  5
11
330
3
100
AcDbSymbolTableRecord
100
AcDbTextStyleTableRecord
  2
Standard
 70
     0
 40
0.0
 41
1.0
 50
0.0
 71
     0
 42
2.5
  3
txt
  4

  0
ENDTAB
  0
TABLE
  2
VIEW
  5
6
330
0
100
AcDbSymbolTable
 70
     0
  0
ENDTAB
  0
TABLE
  2
UCS
  5
7
330
0
100
AcDbSymbolTable
 70
     0
  0
ENDTAB
  0
TABLE
  2
APPID
  5
9
330
0
100
AcDbSymbolTable
 70
     2
  0
APPID
  5
12
330
9
100
AcDbSymbolTableRecord
100
AcDbRegAppTableRecord
  2
ACAD
 70
     0
  0
APPID
  5
5D
330
9
100
AcDbSymbolTableRecord
100
AcDbRegAppTableRecord
  2
KOMPAS
 70
     0
  0
ENDTAB
  0
TABLE
  2
DIMSTYLE
  5
A
330
0
100
AcDbSymbolTable
 70
     1
100
AcDbDimStyleTable
  0
DIMSTYLE
105
27
330
A
100
AcDbSymbolTableRecord
100
AcDbDimStyleTableRecord
  2
ISO-25
 70
     0
 41
2.5
 42
0.625
 43
3.75
 44
1.25
 73
     0
 74
     0
 77
     1
 78
     8
140
2.5
141
2.5
143
0.03937007874016
147
0.625
171
     3
172
     1
271
     2
272
     2
274
     3
278
    44
283
     0
284
     8
340
11
  0
ENDTAB
  0
TABLE
  2
BLOCK_RECORD
  5
1
330
0
100
AcDbSymbolTable
 70
    14
  0
BLOCK_RECORD
  5
1F
330
1
100
AcDbSymbolTableRecord
100
AcDbBlockTableRecord
  2
*Model_Space
340
22
 70
     0
280
     1
281
     0
  0
BLOCK_RECORD
  5
1B
330
1
100
AcDbSymbolTableRecord
100
AcDbBlockTableRecord
  2
*Paper_Space
340
1E
 70
     0
280
     1
281
     0
  0
BLOCK_RECORD
  5
23
330
1
100
AcDbSymbolTableRecord
100
AcDbBlockTableRecord
  2
*Paper_Space0
340
26
 70
     0
280
     1
281
     0
  0
BLOCK_RECORD
  5
60
330
1
100
AcDbSymbolTableRecord
100
AcDbBlockTableRecord
  2
KDIMARROW_00
340
0
 70
     0
280
     1
281
     0
  0
BLOCK_RECORD
  5
65
330
1
100
AcDbSymbolTableRecord
100
AcDbBlockTableRecord
  2
KDIMARROW_01
340
0
 70
     0
280
     1
281
     0
  0
BLOCK_RECORD
  5
6E
330
1
100
AcDbSymbolTableRecord
100
AcDbBlockTableRecord
  2
KDIMARROW_02
340
0
 70
     0
280
     1
281
     0
  0
BLOCK_RECORD
  5
78
330
1
100
AcDbSymbolTableRecord
100
AcDbBlockTableRecord
  2
KDIMARROW_03
340
0
 70
     0
280
     1
281
     0
  0
BLOCK_RECORD
  5
7E
330
1
100
AcDbSymbolTableRecord
100
AcDbBlockTableRecord
  2
KDIMARROW_04
340
0
 70
     0
280
     1
281
     0
  0
BLOCK_RECORD
  5
84
330
1
100
AcDbSymbolTableRecord
100
AcDbBlockTableRecord
  2
KDIMARROW_05
340
0
 70
     0
280
     1
281
     0
  0
BLOCK_RECORD
  5
8D
330
1
100
AcDbSymbolTableRecord
100
AcDbBlockTableRecord
  2
KDIMARROW_06
340
0
 70
     0
280
     1
281
     0
  0
BLOCK_RECORD
  5
97
330
1
100
AcDbSymbolTableRecord
100
AcDbBlockTableRecord
  2
KDIMARROW_07
340
0
 70
     0
280
     1
281
     0
  0
BLOCK_RECORD
  5
9D
330
1
100
AcDbSymbolTableRecord
100
AcDbBlockTableRecord
  2
KDIMARROW_08
340
0
 70
     0
280
     1
281
     0
  0
BLOCK_RECORD
  5
A4
330
1
100
AcDbSymbolTableRecord
100
AcDbBlockTableRecord
  2
KDIMARROW_09
340
0
 70
     0
280
     1
281
     0
  0
BLOCK_RECORD
  5
AA
330
1
100
AcDbSymbolTableRecord
100
AcDbBlockTableRecord
  2
KDIMARROW_10
340
0
 70
     0
280
     1
281
     0
  0
BLOCK_RECORD
  5
B1
330
1
100
AcDbSymbolTableRecord
100
AcDbBlockTableRecord
  2
KDIMARROW_11
340
0
 70
     0
280
     1
281
     0
  0
BLOCK_RECORD
  5
B7
330
1
100
AcDbSymbolTableRecord
100
AcDbBlockTableRecord
  2
KDIMARROW_12
340
0
 70
     0
280
     1
281
     0
  0
ENDTAB
  0
ENDSEC
  0
SECTION
  2
BLOCKS
  0
BLOCK
  5
20
330
1F
100
AcDbEntity
  8
0
100
AcDbBlockBegin
  2
*Model_Space
 70
     0
 10
0.0
 20
0.0
 30
0.0
  3
*Model_Space
  1

  0
ENDBLK
  5
21
330
1F
100
AcDbEntity
  8
0
100
AcDbBlockEnd
  0
BLOCK
  5
1C
330
1B
100
AcDbEntity
 67
     1
  8
0
100
AcDbBlockBegin
  2
*Paper_Space
 70
     0
 10
0.0
 20
0.0
 30
0.0
  3
*Paper_Space
  1

  0
ENDBLK
  5
1D
330
1B
100
AcDbEntity
 67
     1
  8
0
100
AcDbBlockEnd
  0
BLOCK
  5
24
330
23
100
AcDbEntity
  8
0
100
AcDbBlockBegin
  2
*Paper_Space0
 70
     0
 10
0.0
 20
0.0
 30
0.0
  3
*Paper_Space0
  1

  0
ENDBLK
  5
25
330
23
100
AcDbEntity
  8
0
100
AcDbBlockEnd
  0
BLOCK
  5
63
330
60
100
AcDbEntity
  8
0
100
AcDbBlockBegin
  2
KDIMARROW_00
 70
     0
 10
0.0
 20
0.0
 30
0.0
  3
KDIMARROW_00
  1

  0
LINE
  5
62
330
60
100
AcDbEntity
  8
0 (1) (1)
  6
K5LT_THIN
 62
     0
370
    18
100
AcDbLine
 10
0.0
 20
0.0
 30
0.0
 11
-1.0
 21
0.0
 31
0.0
  0
ENDBLK
  5
64
330
60
100
AcDbEntity
  8
0
100
AcDbBlockEnd
  0
BLOCK
  5
6C
330
65
100
AcDbEntity
  8
0
100
AcDbBlockBegin
  2
KDIMARROW_01
 70
     0
 10
0.0
 20
0.0
 30
0.0
  3
KDIMARROW_01
  1

  0
LINE
  5
66
330
65
100
AcDbEntity
  8
0
  6
K5LT_THIN
 62
     0
370
    18
100
AcDbLine
 10
0.0
 20
0.0
 30
0.0
 11
-5.000000000000002
 21
-0.6582624912261958
 31
0.0
  0
LINE
  5
67
330
65
100
AcDbEntity
  8
0
  6
K5LT_THIN
 62
     0
370
    18
100
AcDbLine
 10
-5.0
 20
-0.6582624912261956
 30
0.0
 11
-4.5
 21
0.0000000000000004
 31
0.0
  0
LINE
  5
68
330
65
100
AcDbEntity
  8
0
  6
K5LT_THIN
 62
     0
370
    18
100
AcDbLine
 10
-4.5
 20
0.0000000000000006
 30
0.0
 11
-5.0
 21
0.658262491226197
 31
0.0
  0
LINE
  5
69
330
65
100
AcDbEntity
  8
0
  6
K5LT_THIN
 62
     0
370
    18
100
AcDbLine
 10
-5.0
 20
0.658262491226197
 30
0.0
 11
0.0000000000000018
 21
0.0
 31
0.0
  0
HATCH
  5
6A
330
65
100
AcDbEntity
  8
0
 62
     0
100
AcDbHatch
 10
0.0
 20
0.0
 30
0.0
210
0.0
220
0.0
230
1.0
  2
SOLID
 70
     1
 71
     0
 91
        1
 92
        1
 93
        4
 72
     1
 10
-5.000000000000002
 20
-0.6582624912261958
 11
0.0
 21
0.0
 72
     1
 10
0.0000000000000018
 20
0.0
 11
-5.0
 21
0.658262491226197
 72
     1
 10
-5.0
 20
0.658262491226197
 11
-4.5
 21
0.0000000000000006
 72
     1
 10
-4.5
 20
0.0000000000000004
 11
-5.0
 21
-0.6582624912261956
 97
        0
 75
     0
 76
     1
 98
        0
  0
LINE
  5
6B
330
65
100
AcDbEntity
  8
0 (1) (1)
  6
K5LT_THIN
 62
     0
370
    18
100
AcDbLine
 10
0.0
 20
0.0
 30
0.0
 11
-1.0
 21
0.0
 31
0.0
  0
ENDBLK
  5
6D
330
65
100
AcDbEntity
  8
0
100
AcDbBlockEnd
  0
BLOCK
  5
76
330
6E
100
AcDbEntity
  8
0
100
AcDbBlockBegin
  2
KDIMARROW_02
 70
     0
 10
0.0
 20
0.0
 30
0.0
  3
KDIMARROW_02
  1

  0
LINE
  5
6F
330
6E
100
AcDbEntity
  8
0
  6
K5LT_THIN
 62
     0
370
    18
100
AcDbLine
 10
0.0
 20
0.0
 30
0.0
 11
5.000000000000002
 21
-0.658262491226197
 31
0.0
  0
LINE
  5
70
330
6E
100
AcDbEntity
  8
0
  6
K5LT_THIN
 62
     0
370
    18
100
AcDbLine
 10
5.0
 20
-0.658262491226197
 30
0.0
 11
4.5
 21
-0.0000000000000006
 31
0.0
  0
LINE
  5
71
330
6E
100
AcDbEntity
  8
0
  6
K5LT_THIN
 62
     0
370
    18
100
AcDbLine
 10
4.5
 20
-0.0000000000000006
 30
0.0
 11
5.0
 21
0.6582624912261955
 31
0.0
  0
LINE
  5
72
330
6E
100
AcDbEntity
  8
0
  6
K5LT_THIN
 62
     0
370
    18
100
AcDbLine
 10
5.0
 20
0.6582624912261956
 30
0.0
 11
-0.0000000000000018
 21
-0.0000000000000002
 31
0.0
  0
LINE
  5
73
330
6E
100
AcDbEntity
  8
0
  6
K5LT_THIN
 62
     0
370
    18
100
AcDbLine
 10
0.0
 20
0.0
 30
0.0
 11
7.0
 21
-0.0000000000000009
 31
0.0
  0
HATCH
  5
74
330
6E
100
AcDbEntity
  8
0
 62
     0
100
AcDbHatch
 10
0.0
 20
0.0
 30
0.0
210
0.0
220
0.0
230
1.0
  2
SOLID
 70
     1
 71
     0
 91
        1
 92
        1
 93
        4
 72
     1
 10
4.5
 20
-0.0000000000000006
 11
5.0
 21
0.6582624912261955
 72
     1
 10
5.0
 20
0.6582624912261956
 11
-0.0000000000000018
 21
-0.0000000000000002
 72
     1
 10
0.0
 20
0.0
 11
5.000000000000002
 21
-0.658262491226197
 72
     1
 10
5.0
 20
-0.658262491226197
 11
4.5
 21
-0.0000000000000006
 97
        0
 75
     0
 76
     1
 98
        0
  0
LINE
  5
75
330
6E
100
AcDbEntity
  8
0 (1) (1)
  6
K5LT_THIN
 62
     0
370
    18
100
AcDbLine
 10
0.0
 20
0.0
 30
0.0
 11
-1.0
 21
0.0
 31
0.0
  0
ENDBLK
  5
77
330
6E
100
AcDbEntity
  8
0
100
AcDbBlockEnd
  0
BLOCK
  5
7C
330
78
100
AcDbEntity
  8
0
100
AcDbBlockBegin
  2
KDIMARROW_03
 70
     0
 10
0.0
 20
0.0
 30
0.0
  3
KDIMARROW_03
  1

  0
LINE
  5
79
330
78
100
AcDbEntity
  8
0
  6
K5LT_THIN
 62
     0
370
    18
100
AcDbLine
 10
-1.060500025749207
 20
-1.060500025749206
 30
0.0
 11
1.060500025749206
 21
1.060500025749206
 31
0.0
  0
LINE
  5
7A
330
78
100
AcDbEntity
  8
0
  6
K5LT_THIN
 62
     0
370
    18
100
AcDbLine
 10
0.0
 20
0.0
 30
0.0
 11
2.0
 21
-0.0000000000000002
 31
0.0
  0
LINE
  5
7B
330
78
100
AcDbEntity
  8
0 (1) (1)
  6
K5LT_THIN
 62
     0
370
    18
100
AcDbLine
 10
0.0
 20
0.0
 30
0.0
 11
-1.0
 21
0.0
 31
0.0
  0
ENDBLK
  5
7D
330
78
100
AcDbEntity
  8
0
100
AcDbBlockEnd
  0
BLOCK
  5
82
330
7E
100
AcDbEntity
  8
0
100
AcDbBlockBegin
  2
KDIMARROW_04
 70
     0
 10
0.0
 20
0.0
 30
0.0
  3
KDIMARROW_04
  1

  0
LWPOLYLINE
  5
7F
330
7E
100
AcDbEntity
  8
0
  6
K5LT_THIN
 62
     7
100
AcDbPolyline
 90
       10
 70
     0
 43
0.18
 10
-0.3
 20
0.0
 10
0.0
 20
-0.3
 10
0.3
 20
0.0
 10
0.0
 20
0.3
 10
-0.3
 20
0.0
 10
-0.6
 20
0.0000000000000001
 10
-0.0000000000000001
 20
-0.6
 10
0.6
 20
-0.0000000000000001
 10
0.0000000000000001
 20
0.6
 10
-0.6
 20
0.0000000000000001
  0
LWPOLYLINE
  5
80
330
7E
100
AcDbEntity
  8
0
  6
K5LT_THIN
 62
     7
100
AcDbPolyline
 90
       10
 70
     0
 43
0.18
 10
-0.3
 20
0.0
 10
0.0
 20
-0.3
 10
0.3
 20
0.0
 10
0.0
 20
0.3
 10
-0.3
 20
0.0
 10
-0.6
 20
0.0000000000000001
 10
-0.0000000000000001
 20
-0.6
 10
0.6
 20
-0.0000000000000001
 10
0.0000000000000001
 20
0.6
 10
-0.6
 20
0.0000000000000001
  0
LINE
  5
81
330
7E
100
AcDbEntity
  8
0 (1) (1)
  6
K5LT_THIN
 62
     0
370
    18
100
AcDbLine
 10
0.0
 20
0.0
 30
0.0
 11
-1.0
 21
0.0
 31
0.0
  0
ENDBLK
  5
83
330
7E
100
AcDbEntity
  8
0
100
AcDbBlockEnd
  0
BLOCK
  5
8B
330
84
100
AcDbEntity
  8
0
100
AcDbBlockBegin
  2
KDIMARROW_05
 70
     0
 10
0.0
 20
0.0
 30
0.0
  3
KDIMARROW_05
  1

  0
LINE
  5
85
330
84
100
AcDbEntity
  8
0
  6
K5LT_THIN
 62
     0
370
    18
100
AcDbLine
 10
0.0
 20
0.0
 30
0.0
 11
-5.000000000000002
 21
-0.6582624912261958
 31
0.0
  0
LINE
  5
86
330
84
100
AcDbEntity
  8
0
  6
K5LT_THIN
 62
     0
370
    18
100
AcDbLine
 10
-5.0
 20
-0.6582624912261956
 30
0.0
 11
-5.0
 21
0.0000000000000003
 31
0.0
  0
LINE
  5
87
330
84
100
AcDbEntity
  8
0
  6
K5LT_THIN
 62
     0
370
    18
100
AcDbLine
 10
-5.0
 20
0.0000000000000006
 30
0.0
 11
-5.0
 21
0.6582624912261966
 31
0.0
  0
LINE
  5
88
330
84
100
AcDbEntity
  8
0
  6
K5LT_THIN
 62
     0
370
    18
100
AcDbLine
 10
-5.0
 20
0.658262491226197
 30
0.0
 11
0.0000000000000018
 21
0.0
 31
0.0
  0
HATCH
  5
89
330
84
100
AcDbEntity
  8
0
 62
     0
100
AcDbHatch
 10
0.0
 20
0.0
 30
0.0
210
0.0
220
0.0
230
1.0
  2
SOLID
 70
     1
 71
     0
 91
        1
 92
        1
 93
        4
 72
     1
 10
0.0000000000000018
 20
0.0
 11
-5.0
 21
0.658262491226197
 72
     1
 10
-5.0
 20
0.6582624912261966
 11
-5.0
 21
0.0000000000000007
 72
     1
 10
-5.0
 20
0.0000000000000003
 11
-5.0
 21
-0.6582624912261956
 72
     1
 10
-5.000000000000002
 20
-0.6582624912261958
 11
0.0
 21
0.0
 97
        0
 75
     0
 76
     1
 98
        0
  0
LINE
  5
8A
330
84
100
AcDbEntity
  8
0 (1) (1)
  6
K5LT_THIN
 62
     0
370
    18
100
AcDbLine
 10
0.0
 20
0.0
 30
0.0
 11
-1.0
 21
0.0
 31
0.0
  0
ENDBLK
  5
8C
330
84
100
AcDbEntity
  8
0
100
AcDbBlockEnd
  0
BLOCK
  5
95
330
8D
100
AcDbEntity
  8
0
100
AcDbBlockBegin
  2
KDIMARROW_06
 70
     0
 10
0.0
 20
0.0
 30
0.0
  3
KDIMARROW_06
  1

  0
LINE
  5
8E
330
8D
100
AcDbEntity
  8
0
  6
K5LT_THIN
 62
     0
370
    18
100
AcDbLine
 10
0.0
 20
0.0
 30
0.0
 11
5.000000000000002
 21
-0.658262491226197
 31
0.0
  0
LINE
  5
8F
330
8D
100
AcDbEntity
  8
0
  6
K5LT_THIN
 62
     0
370
    18
100
AcDbLine
 10
5.0
 20
-0.658262491226197
 30
0.0
 11
5.0
 21
-0.000000000000001
 31
0.0
  0
LINE
  5
90
330
8D
100
AcDbEntity
  8
0
  6
K5LT_THIN
 62
     0
370
    18
100
AcDbLine
 10
5.0
 20
-0.0000000000000006
 30
0.0
 11
5.0
 21
0.6582624912261953
 31
0.0
  0
LINE
  5
91
330
8D
100
AcDbEntity
  8
0
  6
K5LT_THIN
 62
     0
370
    18
100
AcDbLine
 10
5.0
 20
0.6582624912261956
 30
0.0
 11
-0.0000000000000018
 21
-0.0000000000000002
 31
0.0
  0
LINE
  5
92
330
8D
100
AcDbEntity
  8
0
  6
K5LT_THIN
 62
     0
370
    18
100
AcDbLine
 10
0.0
 20
0.0
 30
0.0
 11
7.0
 21
-0.0000000000000009
 31
0.0
  0
HATCH
  5
93
330
8D
100
AcDbEntity
  8
0
 62
     0
100
AcDbHatch
 10
0.0
 20
0.0
 30
0.0
210
0.0
220
0.0
230
1.0
  2
SOLID
 70
     1
 71
     0
 91
        1
 92
        1
 93
        4
 72
     1
 10
5.0
 20
-0.0000000000000006
 11
5.0
 21
0.6582624912261953
 72
     1
 10
5.0
 20
0.6582624912261956
 11
-0.0000000000000018
 21
-0.0000000000000002
 72
     1
 10
0.0
 20
0.0
 11
5.000000000000002
 21
-0.658262491226197
 72
     1
 10
5.0
 20
-0.658262491226197
 11
5.0
 21
-0.000000000000001
 97
        0
 75
     0
 76
     1
 98
        0
  0
LINE
  5
94
330
8D
100
AcDbEntity
  8
0 (1) (1)
  6
K5LT_THIN
 62
     0
370
    18
100
AcDbLine
 10
0.0
 20
0.0
 30
0.0
 11
-1.0
 21
0.0
 31
0.0
  0
ENDBLK
  5
96
330
8D
100
AcDbEntity
  8
0
100
AcDbBlockEnd
  0
BLOCK
  5
9B
330
97
100
AcDbEntity
  8
0
100
AcDbBlockBegin
  2
KDIMARROW_07
 70
     0
 10
0.0
 20
0.0
 30
0.0
  3
KDIMARROW_07
  1

  0
LINE
  5
98
330
97
100
AcDbEntity
  8
0
  6
K5LT_THIN
 62
     0
370
    18
100
AcDbLine
 10
0.0
 20
0.0
 30
0.0
 11
-5.000000000000002
 21
-0.6582624912261958
 31
0.0
  0
LINE
  5
99
330
97
100
AcDbEntity
  8
0
  6
K5LT_THIN
 62
     0
370
    18
100
AcDbLine
 10
0.0
 20
0.0
 30
0.0
 11
-5.000000000000002
 21
0.658262491226197
 31
0.0
  0
LINE
  5
9A
330
97
100
AcDbEntity
  8
0 (1) (1)
  6
K5LT_THIN
 62
     0
370
    18
100
AcDbLine
 10
0.0
 20
0.0
 30
0.0
 11
-1.0
 21
0.0
 31
0.0
  0
ENDBLK
  5
9C
330
97
100
AcDbEntity
  8
0
100
AcDbBlockEnd
  0
BLOCK
  5
A2
330
9D
100
AcDbEntity
  8
0
100
AcDbBlockBegin
  2
KDIMARROW_08
 70
     0
 10
0.0
 20
0.0
 30
0.0
  3
KDIMARROW_08
  1

  0
LINE
  5
9E
330
9D
100
AcDbEntity
  8
0
  6
K5LT_THIN
 62
     0
370
    18
100
AcDbLine
 10
0.0
 20
0.0
 30
0.0
 11
5.000000000000002
 21
-0.658262491226197
 31
0.0
  0
LINE
  5
9F
330
9D
100
AcDbEntity
  8
0
  6
K5LT_THIN
 62
     0
370
    18
100
AcDbLine
 10
0.0
 20
0.0
 30
0.0
 11
5.000000000000002
 21
0.6582624912261958
 31
0.0
  0
LINE
  5
A0
330
9D
100
AcDbEntity
  8
0
  6
K5LT_THIN
 62
     0
370
    18
100
AcDbLine
 10
0.0
 20
0.0
 30
0.0
 11
7.0
 21
-0.0000000000000009
 31
0.0
  0
LINE
  5
A1
330
9D
100
AcDbEntity
  8
0 (1) (1)
  6
K5LT_THIN
 62
     0
370
    18
100
AcDbLine
 10
0.0
 20
0.0
 30
0.0
 11
-1.0
 21
0.0
 31
0.0
  0
ENDBLK
  5
A3
330
9D
100
AcDbEntity
  8
0
100
AcDbBlockEnd
  0
BLOCK
  5
A8
330
A4
100
AcDbEntity
  8
0
100
AcDbBlockBegin
  2
KDIMARROW_09
 70
     0
 10
0.0
 20
0.0
 30
0.0
  3
KDIMARROW_09
  1

  0
LINE
  5
A5
330
A4
100
AcDbEntity
  8
0
  6
K5LT_THIN
 62
     0
370
    18
100
AcDbLine
 10
0.0
 20
0.0
 30
0.0
 11
-2.0
 21
-2.0
 31
0.0
  0
LINE
  5
A6
330
A4
100
AcDbEntity
  8
0
  6
K5LT_THIN
 62
     0
370
    18
100
AcDbLine
 10
0.0
 20
0.0
 30
0.0
 11
-2.0
 21
2.0
 31
0.0
  0
LINE
  5
A7
330
A4
100
AcDbEntity
  8
0 (1) (1)
  6
K5LT_THIN
 62
     0
370
    18
100
AcDbLine
 10
0.0
 20
0.0
 30
0.0
 11
-1.0
 21
0.0
 31
0.0
  0
ENDBLK
  5
A9
330
A4
100
AcDbEntity
  8
0
100
AcDbBlockEnd
  0
BLOCK
  5
AF
330
AA
100
AcDbEntity
  8
0
100
AcDbBlockBegin
  2
KDIMARROW_10
 70
     0
 10
0.0
 20
0.0
 30
0.0
  3
KDIMARROW_10
  1

  0
LINE
  5
AB
330
AA
100
AcDbEntity
  8
0
  6
K5LT_THIN
 62
     0
370
    18
100
AcDbLine
 10
0.0
 20
0.0
 30
0.0
 11
2.0
 21
-2.0
 31
0.0
  0
LINE
  5
AC
330
AA
100
AcDbEntity
  8
0
  6
K5LT_THIN
 62
     0
370
    18
100
AcDbLine
 10
0.0
 20
0.0
 30
0.0
 11
2.0
 21
2.0
 31
0.0
  0
LINE
  5
AD
330
AA
100
AcDbEntity
  8
0
  6
K5LT_THIN
 62
     0
370
    18
100
AcDbLine
 10
0.0
 20
0.0
 30
0.0
 11
4.0
 21
-0.0000000000000005
 31
0.0
  0
LINE
  5
AE
330
AA
100
AcDbEntity
  8
0 (1) (1)
  6
K5LT_THIN
 62
     0
370
    18
100
AcDbLine
 10
0.0
 20
0.0
 30
0.0
 11
-1.0
 21
0.0
 31
0.0
  0
ENDBLK
  5
B0
330
AA
100
AcDbEntity
  8
0
100
AcDbBlockEnd
  0
BLOCK
  5
B5
330
B1
100
AcDbEntity
  8
0
100
AcDbBlockBegin
  2
KDIMARROW_11
 70
     0
 10
0.0
 20
0.0
 30
0.0
  3
KDIMARROW_11
  1

  0
CIRCLE
  5
B2
330
B1
100
AcDbEntity
  8
0
  6
K5LT_THIN
 62
     0
370
    18
100
AcDbCircle
 10
0.0
 20
0.0
 30
0.0
 40
2.5
  0
CIRCLE
  5
B3
330
B1
100
AcDbEntity
  8
0
  6
K5LT_THIN
 62
     0
370
    18
100
AcDbCircle
 10
0.0
 20
0.0
 30
0.0
 40
2.5
  0
LINE
  5
B4
330
B1
100
AcDbEntity
  8
0 (1) (1)
  6
K5LT_THIN
 62
     0
370
    18
100
AcDbLine
 10
0.0
 20
0.0
 30
0.0
 11
-1.0
 21
0.0
 31
0.0
  0
ENDBLK
  5
B6
330
B1
100
AcDbEntity
  8
0
100
AcDbBlockEnd
  0
BLOCK
  5
BB
330
B7
100
AcDbEntity
  8
0
100
AcDbBlockBegin
  2
KDIMARROW_12
 70
     0
 10
0.0
 20
0.0
 30
0.0
  3
KDIMARROW_12
  1

  0
CIRCLE
  5
B8
330
B7
100
AcDbEntity
  8
0
  6
K5LT_THIN
 62
     0
370
    18
100
AcDbCircle
 10
0.0
 20
0.0
 30
0.0
 40
1.5
  0
CIRCLE
  5
B9
330
B7
100
AcDbEntity
  8
0
  6
K5LT_THIN
 62
     0
370
    18
100
AcDbCircle
 10
0.0
 20
0.0
 30
0.0
 40
1.5
  0
LINE
  5
BA
330
B7
100
AcDbEntity
  8
0 (1) (1)
  6
K5LT_THIN
 62
     0
370
    18
100
AcDbLine
 10
0.0
 20
0.0
 30
0.0
 11
-1.0
 21
0.0
 31
0.0
  0
ENDBLK
  5
BC
330
B7
100
AcDbEntity
  8
0
100
AcDbBlockEnd
  0
ENDSEC
  0
SECTION
  2
ENTITIES
  0
LINE
  5
BE
330
1F
100
AcDbEntity
  8
0 (1) (1)
  6
K5LT32768
 62
     5
420
      255
370
    60
100
AcDbLine
 10
-11.46421337127686
 20
30.05000228881837
 30
0.0
 11
-7.5
 21
26.08578844070436
 31
0.0
  0
LINE
  5
BF
330
1F
100
AcDbEntity
  8
0 (1) (1)
  6
K5LT32768
 62
     5
420
      255
370
    60
100
AcDbLine
 10
-5.5
 20
25.5000020980835
 30
0.0
 11
-2.564691689666986
 21
25.5000020980835
 31
0.0
  0
LINE
  5
C0
330
1F
100
AcDbEntity
  8
0 (1) (1)
  6
K5LT32768
 62
     5
420
      255
370
    60
100
AcDbLine
 10
2.564691689666986
 20
25.5000020980835
 30
0.0
 11
5.5
 21
25.5000020980835
 31
0.0
  0
LINE
  5
C1
330
1F
100
AcDbEntity
  8
0 (1) (1)
  6
K5LT32768
 62
     5
420
      255
370
    60
100
AcDbLine
 10
5.5
 20
25.5000020980835
 30
0.0
 11
5.5
 21
22.56469378775049
 31
0.0
  0
LINE
  5
C2
330
1F
100
AcDbEntity
  8
0 (1) (1)
  6
K5LT32768
 62
     5
420
      255
370
    60
100
AcDbLine
 10
-5.5
 20
22.56469378775049
 30
0.0
 11
-5.5
 21
25.5000020980835
 31
0.0
  0
LINE
  5
C3
330
1F
100
AcDbEntity
  8
0 (1) (1)
  6
K5LT32768
 62
     5
420
      255
370
    60
100
AcDbLine
 10
-20.0
 20
25.80000228881838
 30
0.0
 11
-20.0
 21
34.00000228881838
 31
0.0
  0
LINE
  5
C5
330
1F
100
AcDbEntity
  8
0 (1) (1)
  6
K5LT32769
 62
     5
420
      255
370
    60
100
AcDbLine
 10
-13.99999999999999
 20
29.7500011444092
 30
0.0
 11
-14.0
 21
25.00000114440921
 31
0.0
  0
ARC
  5
C6
330
1F
100
AcDbEntity
  8
0 (1) (1)
  6
K5LT32769
 62
     5
420
      255
370
    60
100
AcDbCircle
 10
-13.7
 20
29.7500011444092
 30
0.0
 40
0.2999999999999972
100
AcDbArc
 50
90.0
 51
180.0000000000013
  0
LINE
  5
C7
330
1F
100
AcDbEntity
  8
0 (1) (1)
  6
K5LT32769
 62
     5
420
      255
370
    60
100
AcDbLine
 10
-7.0
 20
20.00000114440919
 30
0.0
 11
-7.5
 21
20.86602654819363
 31
0.0
  0
LINE
  5
C8
330
1F
100
AcDbEntity
  8
0 (1) (1)
  6
K5LT32769
 62
     5
420
      255
370
    60
100
AcDbLine
 10
-7.5
 20
20.86602654819365
 30
0.0
 11
-7.499999999999993
 21
26.08578844070435
 31
0.0
  0
LINE
  5
C9
330
1F
100
AcDbEntity
  8
0 (1) (1)
  6
K5LT32769
 62
     5
420
      255
370
    60
100
AcDbLine
 10
-14.0
 20
25.0000011444092
 30
0.0
 11
-18.5
 21
25.0000011444092
 31
0.0
  0
LINE
  5
CA
330
1F
100
AcDbEntity
  8
0 (1) (1)
  6
K5LT32769
 62
     5
420
      255
370
    60
100
AcDbLine
 10
-18.5
 20
25.0000011444092
 30
0.0
 11
-18.5
 21
25.80000038146975
 31
0.0
  0
LINE
  5
CB
330
1F
100
AcDbEntity
  8
0 (1) (1)
  6
K5LT32769
 62
     5
420
      255
370
    60
100
AcDbLine
 10
-18.5
 20
25.80000038146975
 30
0.0
 11
-20.0
 21
25.80000038146975
 31
0.0
  0
LINE
  5
CC
330
1F
100
AcDbEntity
  8
0 (1) (1)
  6
K5LT32769
 62
     5
420
      255
370
    60
100
AcDbLine
 10
-11.46421222686783
 20
30.0500011444092
 30
0.0
 11
-13.7
 21
30.0500011444092
 31
0.0
  0
LINE
  5
CD
330
1F
100
AcDbEntity
  8
0 (1) (1)
  6
K5LT32769
 62
     5
420
      255
370
    60
100
AcDbLine
 10
7.0
 20
20.00000114440919
 30
0.0
 11
7.5
 21
20.86602654819363
 31
0.0
  0
LINE
  5
CE
330
1F
100
AcDbEntity
  8
0 (1) (1)
  6
K5LT32769
 62
     5
420
      255
370
    60
100
AcDbLine
 10
7.5
 20
20.86602654819365
 30
0.0
 11
7.499999999999993
 21
26.08578844070435
 31
0.0
  0
LINE
  5
CF
330
1F
100
AcDbEntity
  8
0 (1) (1)
  6
K5LT32769
 62
     5
420
      255
370
    60
100
AcDbLine
 10
14.0
 20
25.0000011444092
 30
0.0
 11
18.5
 21
25.0000011444092
 31
0.0
  0
LINE
  5
D0
330
1F
100
AcDbEntity
  8
0 (1) (1)
  6
K5LT32769
 62
     5
420
      255
370
    60
100
AcDbLine
 10
18.5
 20
25.0000011444092
 30
0.0
 11
18.5
 21
25.80000038146975
 31
0.0
  0
LINE
  5
D1
330
1F
100
AcDbEntity
  8
0 (1) (1)
  6
K5LT32769
 62
     5
420
      255
370
    60
100
AcDbLine
 10
18.5
 20
25.80000038146975
 30
0.0
 11
20.0
 21
25.80000038146975
 31
0.0
  0
LINE
  5
D2
330
1F
100
AcDbEntity
  8
0 (1) (1)
  6
K5LT32768
 62
     5
420
      255
370
    60
100
AcDbLine
 10
11.46421337127686
 20
30.05000228881837
 30
0.0
 11
7.499999999999994
 21
26.08578844070436
 31
0.0
  0
LINE
  5
D3
330
1F
100
AcDbEntity
  8
0 (1) (1)
  6
K5LT32769
 62
     5
420
      255
370
    60
100
AcDbLine
 10
13.99999999999999
 20
29.7500011444092
 30
0.0
 11
14.0
 21
25.00000114440921
 31
0.0
  0
ARC
  5
D4
330
1F
100
AcDbEntity
  8
0 (1) (1)
  6
K5LT32769
 62
     5
420
      255
370
    60
100
AcDbCircle
 10
13.7
 20
29.7500011444092
 30
0.0
 40
0.2999999999999972
100
AcDbArc
 50
0.0
 51
90.0
  0
LINE
  5
D5
330
1F
100
AcDbEntity
  8
0 (1) (1)
  6
K5LT32769
 62
     5
420
      255
370
    60
100
AcDbLine
 10
11.46421222686783
 20
30.0500011444092
 30
0.0
 11
13.7
 21
30.0500011444092
 31
0.0
  0
ARC
  5
D6
330
1F
100
AcDbEntity
  8
0 (1) (1)
  6
K5LT32769
 62
     5
420
      255
370
    60
100
AcDbCircle
 10
0.0
 20
20.0000020980835
 30
0.0
 40
4.999999999999999
100
AcDbArc
 50
340.2159122910447
 51
19.7840877089552
  0
ARC
  5
D7
330
1F
100
AcDbEntity
  8
0 (1) (1)
  6
K5LT32769
 62
     5
420
      255
370
    60
100
AcDbCircle
 10
5.175361441783252
 20
21.86162342018507
 30
0.0
 40
0.5
100
AcDbArc
 50
114.99999668558
 51
199.7840877089553
  0
LINE
  5
D8
330
1F
100
AcDbEntity
  8
0 (1) (1)
  6
K5LT32769
 62
     5
420
      255
370
    60
100
AcDbLine
 10
4.964052337126745
 20
22.3147773259271
 30
0.0
 11
5.5
 21
22.56469378775049
 31
0.0
  0
LINE
  5
D9
330
1F
100
AcDbEntity
  8
0 (1) (1)
  6
K5LT32769
 62
     5
420
      255
370
    60
100
AcDbLine
 10
2.314775227843597
 20
24.96405443521025
 30
0.0
 11
2.564691689666986
 21
25.50000209808351
 31
0.0
  0
ARC
  5
DA
330
1F
100
AcDbEntity
  8
0 (1) (1)
  6
K5LT32769
 62
     5
420
      255
370
    60
100
AcDbCircle
 10
1.86162132210157
 20
25.17536353986676
 30
0.0
 40
0.5000000000000001
100
AcDbArc
 50
250.2159122910447
 51
335.0000033144197
  0
ARC
  5
DB
330
1F
100
AcDbEntity
  8
0 (1) (1)
  6
K5LT32769
 62
     5
420
      255
370
    60
100
AcDbCircle
 10
0.0
 20
20.0000020980835
 30
0.0
 40
4.999999999999999
100
AcDbArc
 50
70.21591229104469
 51
109.7840877089552
  0
ARC
  5
DC
330
1F
100
AcDbEntity
  8
0 (1) (1)
  6
K5LT32769
 62
     5
420
      255
370
    60
100
AcDbCircle
 10
-1.86162132210157
 20
25.17536353986676
 30
0.0
 40
0.5
100
AcDbArc
 50
204.99999668558
 51
289.7840877089552
  0
LINE
  5
DD
330
1F
100
AcDbEntity
  8
0 (1) (1)
  6
K5LT32769
 62
     5
420
      255
370
    60
100
AcDbLine
 10
-2.314775227843596
 20
24.96405443521025
 30
0.0
 11
-2.564691689666986
 21
25.50000209808351
 31
0.0
  0
LINE
  5
DE
330
1F
100
AcDbEntity
  8
0 (1) (1)
  6
K5LT32769
 62
     5
420
      255
370
    60
100
AcDbLine
 10
-4.964052337126745
 20
22.3147773259271
 30
0.0
 11
-5.5
 21
22.56469378775049
 31
0.0
  0
ARC
  5
DF
330
1F
100
AcDbEntity
  8
0 (1) (1)
  6
K5LT32769
 62
     5
420
      255
370
    60
100
AcDbCircle
 10
-5.175361441783252
 20
21.86162342018507
 30
0.0
 40
0.5000000000000001
100
AcDbArc
 50
340.2159122910447
 51
65.00000331442003
  0
ARC
  5
E0
330
1F
100
AcDbEntity
  8
0 (1) (1)
  6
K5LT32769
 62
     5
420
      255
370
    60
100
AcDbCircle
 10
0.0
 20
20.0000020980835
 30
0.0
 40
5.0
100
AcDbArc
 50
160.2159122910447
 51
199.7840877089552
  0
LINE
  5
E1
330
1F
100
AcDbEntity
  8
0 (1) (1)
  6
K5LT32768
 62
     5
420
      255
370
    60
100
AcDbLine
 10
-11.46421337127686
 20
49.95000190734864
 30
0.0
 11
-7.499999999999998
 21
53.91421575546265
 31
0.0
  0
LINE
  5
E2
330
1F
100
AcDbEntity
  8
0 (1) (1)
  6
K5LT32768
 62
     5
420
      255
370
    60
100
AcDbLine
 10
-7.499999999999997
 20
66.08578844070435
 30
0.0
 11
-11.46421337127686
 21
70.05000228881835
 31
0.0
  0
LINE
  5
E3
330
1F
100
AcDbEntity
  8
0 (1) (1)
  6
K5LT32768
 62
     5
420
      255
370
    60
100
AcDbLine
 10
-20.0
 20
65.80000228881836
 30
0.0
 11
-20.0
 21
77.0000020980835
 31
0.0
  0
LINE
  5
E4
330
1F
100
AcDbEntity
  8
0 (1) (1)
  6
K5LT32768
 62
     5
420
      255
370
    60
100
AcDbLine
 10
-16.99999999999999
 20
80.0000020980835
 30
0.0
 11
-5.800000190734853
 21
80.0000020980835
 31
0.0
  0
LINE
  5
E5
330
1F
100
AcDbEntity
  8
0 (1) (1)
  6
K5LT32768
 62
     5
420
      255
370
    60
100
AcDbLine
 10
-17.24999999999999
 20
74.50000197265926
 30
0.0
 11
-18.49999999999999
 21
74.50000197265926
 31
0.0
  0
LINE
  5
E6
330
1F
100
AcDbEntity
  8
0 (1) (1)
  6
K5LT32768
 62
     5
420
      255
370
    60
100
AcDbLine
 10
-18.49999999999999
 20
74.50000197265926
 30
0.0
 11
-18.49999999999999
 21
69.5000020980835
 31
0.0
  0
LINE
  5
E7
330
1F
100
AcDbEntity
  8
0 (1) (1)
  6
K5LT32768
 62
     5
420
      255
370
    60
100
AcDbLine
 10
-15.49999999999999
 20
69.5000020980835
 30
0.0
 11
-15.49999999999999
 21
70.75000184723503
 31
0.0
  0
LINE
  5
E8
330
1F
100
AcDbEntity
  8
0 (1) (1)
  6
K5LT32768
 62
     5
420
      255
370
    60
100
AcDbLine
 10
-5.499999999999998
 20
54.5000020980835
 30
0.0
 11
-2.564691689666984
 21
54.5000020980835
 31
0.0
  0
LINE
  5
E9
330
1F
100
AcDbEntity
  8
0 (1) (1)
  6
K5LT32768
 62
     5
420
      255
370
    60
100
AcDbLine
 10
2.564691689666988
 20
54.5000020980835
 30
0.0
 11
5.500000000000002
 21
54.5000020980835
 31
0.0
  0
LINE
  5
EA
330
1F
100
AcDbEntity
  8
0 (1) (1)
  6
K5LT32768
 62
     5
420
      255
370
    60
100
AcDbLine
 10
5.500000000000002
 20
54.5000020980835
 30
0.0
 11
5.500000000000002
 21
57.43531040841651
 31
0.0
  0
LINE
  5
EB
330
1F
100
AcDbEntity
  8
0 (1) (1)
  6
K5LT32768
 62
     5
420
      255
370
    60
100
AcDbLine
 10
5.500000000000003
 20
62.56469378775048
 30
0.0
 11
5.500000000000003
 21
65.50000209808348
 31
0.0
  0
LINE
  5
EC
330
1F
100
AcDbEntity
  8
0 (1) (1)
  6
K5LT32768
 62
     5
420
      255
370
    60
100
AcDbLine
 10
5.500000000000003
 20
65.5000020980835
 30
0.0
 11
2.564691689666989
 21
65.5000020980835
 31
0.0
  0
LINE
  5
ED
330
1F
100
AcDbEntity
  8
0 (1) (1)
  6
K5LT32768
 62
     5
420
      255
370
    60
100
AcDbLine
 10
-2.564691689666983
 20
65.5000020980835
 30
0.0
 11
-5.499999999999996
 21
65.5000020980835
 31
0.0
  0
LINE
  5
EE
330
1F
100
AcDbEntity
  8
0 (1) (1)
  6
K5LT32768
 62
     5
420
      255
370
    60
100
AcDbLine
 10
-5.499999999999997
 20
65.5000020980835
 30
0.0
 11
-5.499999999999997
 21
62.56469378775048
 31
0.0
  0
LINE
  5
EF
330
1F
100
AcDbEntity
  8
0 (1) (1)
  6
K5LT32768
 62
     5
420
      255
370
    60
100
AcDbLine
 10
-5.499999999999998
 20
57.43531040841651
 30
0.0
 11
-5.499999999999998
 21
54.5000020980835
 31
0.0
  0
ARC
  5
F0
330
1F
100
AcDbEntity
  8
0 (1) (1)
  6
K5LT32768
 62
     5
420
      255
370
    60
100
AcDbCircle
 10
-16.99999999999999
 20
77.0000020980835
 30
0.0
 40
3.0
100
AcDbArc
 50
90.0
 51
180.0
  0
LINE
  5
F1
330
1F
100
AcDbEntity
  8
0 (1) (1)
  6
K5LT32768
 62
     5
420
      255
370
    60
100
AcDbLine
 10
-20.0
 20
54.20000190734862
 30
0.0
 11
-20.0
 21
46.00000228881838
 31
0.0
  0
LINE
  5
F2
330
1F
100
AcDbEntity
  8
0 (1) (1)
  6
K5LT32768
 62
     5
420
      255
370
    60
100
AcDbLine
 10
20.0
 20
65.80000228881836
 30
0.0
 11
20.0
 21
77.0000020980835
 31
0.0
  0
ARC
  5
F3
330
1F
100
AcDbEntity
  8
0 (1) (1)
  6
K5LT32768
 62
     5
420
      255
370
    60
100
AcDbCircle
 10
17.0
 20
77.0000020980835
 30
0.0
 40
3.0
100
AcDbArc
 50
0.0
 51
90.0
  0
LINE
  5
F4
330
1F
100
AcDbEntity
  8
0 (1) (1)
  6
K5LT32768
 62
     5
420
      255
370
    60
100
AcDbLine
 10
17.0
 20
80.0000020980835
 30
0.0
 11
5.800000190734874
 21
80.0000020980835
 31
0.0
  0
LINE
  5
F5
330
1F
100
AcDbEntity
  8
0 (1) (1)
  6
K5LT32769
 62
     5
420
      255
370
    60
100
AcDbLine
 10
-13.99999999999999
 20
69.75000305175782
 30
0.0
 11
-14.0
 21
65.00000305175782
 31
0.0
  0
ARC
  5
F6
330
1F
100
AcDbEntity
  8
0 (1) (1)
  6
K5LT32769
 62
     5
420
      255
370
    60
100
AcDbCircle
 10
-13.7
 20
69.75000305175782
 30
0.0
 40
0.2999999999999972
100
AcDbArc
 50
90.0
 51
180.0000000000013
  0
LINE
  5
F7
330
1F
100
AcDbEntity
  8
0 (1) (1)
  6
K5LT32769
 62
     5
420
      255
370
    60
100
AcDbLine
 10
-13.99999999999999
 20
50.2500030517578
 30
0.0
 11
-14.0
 21
55.0000030517578
 31
0.0
  0
ARC
  5
F8
330
1F
100
AcDbEntity
  8
0 (1) (1)
  6
K5LT32769
 62
     5
420
      255
370
    60
100
AcDbCircle
 10
-13.7
 20
50.2500030517578
 30
0.0
 40
0.2999999999999972
100
AcDbArc
 50
179.9999999999987
 51
270.0
  0
LINE
  5
F9
330
1F
100
AcDbEntity
  8
0 (1) (1)
  6
K5LT32769
 62
     5
420
      255
370
    60
100
AcDbLine
 10
-6.999999999999998
 20
60.00000305175781
 30
0.0
 11
-7.499999999999998
 21
59.13397764797337
 31
0.0
  0
LINE
  5
FA
330
1F
100
AcDbEntity
  8
0 (1) (1)
  6
K5LT32769
 62
     5
420
      255
370
    60
100
AcDbLine
 10
-6.999999999999998
 20
60.00000305175781
 30
0.0
 11
-7.499999999999998
 21
60.86602845554226
 31
0.0
  0
LINE
  5
FB
330
1F
100
AcDbEntity
  8
0 (1) (1)
  6
K5LT32769
 62
     5
420
      255
370
    60
100
AcDbLine
 10
-7.499999999999998
 20
60.86602845554226
 30
0.0
 11
-7.499999999999997
 21
66.08578844070435
 31
0.0
  0
LINE
  5
FC
330
1F
100
AcDbEntity
  8
0 (1) (1)
  6
K5LT32769
 62
     5
420
      255
370
    60
100
AcDbLine
 10
-7.499999999999998
 20
59.13397764797335
 30
0.0
 11
-7.499999999999991
 21
53.91421575546265
 31
0.0
  0
LINE
  5
FD
330
1F
100
AcDbEntity
  8
0 (1) (1)
  6
K5LT32769
 62
     5
420
      255
370
    60
100
AcDbLine
 10
-11.46421337127686
 20
70.05000305175781
 30
0.0
 11
-13.7
 21
70.05000305175781
 31
0.0
  0
LINE
  5
FE
330
1F
100
AcDbEntity
  8
0 (1) (1)
  6
K5LT32769
 62
     5
420
      255
370
    60
100
AcDbLine
 10
-14.0
 20
65.00000305175782
 30
0.0
 11
-18.5
 21
65.00000305175782
 31
0.0
  0
LINE
  5
FF
330
1F
100
AcDbEntity
  8
0 (1) (1)
  6
K5LT32769
 62
     5
420
      255
370
    60
100
AcDbLine
 10
-18.5
 20
65.00000305175782
 30
0.0
 11
-18.5
 21
65.80000228881836
 31
0.0
  0
LINE
  5
100
330
1F
100
AcDbEntity
  8
0 (1) (1)
  6
K5LT32769
 62
     5
420
      255
370
    60
100
AcDbLine
 10
-18.5
 20
65.80000228881836
 30
0.0
 11
-20.0
 21
65.80000228881836
 31
0.0
  0
LINE
  5
101
330
1F
100
AcDbEntity
  8
0 (1) (1)
  6
K5LT32769
 62
     5
420
      255
370
    60
100
AcDbLine
 10
-14.0
 20
55.0000030517578
 30
0.0
 11
-18.5
 21
55.0000030517578
 31
0.0
  0
LINE
  5
102
330
1F
100
AcDbEntity
  8
0 (1) (1)
  6
K5LT32769
 62
     5
420
      255
370
    60
100
AcDbLine
 10
-18.5
 20
55.0000030517578
 30
0.0
 11
-18.5
 21
54.20000381469725
 31
0.0
  0
LINE
  5
103
330
1F
100
AcDbEntity
  8
0 (1) (1)
  6
K5LT32769
 62
     5
420
      255
370
    60
100
AcDbLine
 10
-18.5
 20
54.20000381469726
 30
0.0
 11
-20.0
 21
54.20000381469726
 31
0.0
  0
LINE
  5
104
330
1F
100
AcDbEntity
  8
0 (1) (1)
  6
K5LT32769
 62
     5
420
      255
370
    60
100
AcDbLine
 10
-11.46421222686783
 20
49.9500030517578
 30
0.0
 11
-13.7
 21
49.9500030517578
 31
0.0
  0
LINE
  5
105
330
1F
100
AcDbEntity
  8
0 (1) (1)
  6
K5LT32769
 62
     5
420
      255
370
    60
100
AcDbLine
 10
7.000000000000002
 20
60.00000305175781
 30
0.0
 11
7.500000000000002
 21
59.13397764797337
 31
0.0
  0
LINE
  5
106
330
1F
100
AcDbEntity
  8
0 (1) (1)
  6
K5LT32769
 62
     5
420
      255
370
    60
100
AcDbLine
 10
7.000000000000002
 20
60.00000305175781
 30
0.0
 11
7.500000000000002
 21
60.86602845554225
 31
0.0
  0
LINE
  5
107
330
1F
100
AcDbEntity
  8
0 (1) (1)
  6
K5LT32769
 62
     5
420
      255
370
    60
100
AcDbLine
 10
7.500000000000002
 20
60.86602845554226
 30
0.0
 11
7.500000000000003
 21
66.08578844070435
 31
0.0
  0
LINE
  5
108
330
1F
100
AcDbEntity
  8
0 (1) (1)
  6
K5LT32769
 62
     5
420
      255
370
    60
100
AcDbLine
 10
7.500000000000002
 20
59.13397764797335
 30
0.0
 11
7.499999999999995
 21
53.91421575546265
 31
0.0
  0
LINE
  5
109
330
1F
100
AcDbEntity
  8
0 (1) (1)
  6
K5LT32769
 62
     5
420
      255
370
    60
100
AcDbLine
 10
14.0
 20
65.0000030517578
 30
0.0
 11
18.5
 21
65.0000030517578
 31
0.0
  0
LINE
  5
10A
330
1F
100
AcDbEntity
  8
0 (1) (1)
  6
K5LT32769
 62
     5
420
      255
370
    60
100
AcDbLine
 10
18.5
 20
65.0000030517578
 30
0.0
 11
18.5
 21
65.80000228881835
 31
0.0
  0
LINE
  5
10B
330
1F
100
AcDbEntity
  8
0 (1) (1)
  6
K5LT32769
 62
     5
420
      255
370
    60
100
AcDbLine
 10
18.5
 20
65.80000228881836
 30
0.0
 11
20.0
 21
65.80000228881836
 31
0.0
  0
LINE
  5
10C
330
1F
100
AcDbEntity
  8
0 (1) (1)
  6
K5LT32769
 62
     5
420
      255
370
    60
100
AcDbLine
 10
14.0
 20
55.0000030517578
 30
0.0
 11
18.5
 21
55.0000030517578
 31
0.0
  0
LINE
  5
10D
330
1F
100
AcDbEntity
  8
0 (1) (1)
  6
K5LT32769
 62
     5
420
      255
370
    60
100
AcDbLine
 10
18.5
 20
55.0000030517578
 30
0.0
 11
18.5
 21
54.20000381469725
 31
0.0
  0
LINE
  5
10E
330
1F
100
AcDbEntity
  8
0 (1) (1)
  6
K5LT32769
 62
     5
420
      255
370
    60
100
AcDbLine
 10
18.5
 20
54.20000381469725
 30
0.0
 11
20.0
 21
54.20000381469725
 31
0.0
  0
LINE
  5
10F
330
1F
100
AcDbEntity
  8
0 (1) (1)
  6
K5LT32768
 62
     5
420
      255
370
    60
100
AcDbLine
 10
11.46421337127686
 20
49.95000190734864
 30
0.0
 11
7.499999999999996
 21
53.91421575546264
 31
0.0
  0
LINE
  5
110
330
1F
100
AcDbEntity
  8
0 (1) (1)
  6
K5LT32768
 62
     5
420
      255
370
    60
100
AcDbLine
 10
7.500000000000003
 20
66.08578844070435
 30
0.0
 11
11.46421337127686
 21
70.05000228881835
 31
0.0
  0
LINE
  5
111
330
1F
100
AcDbEntity
  8
0 (1) (1)
  6
K5LT32769
 62
     5
420
      255
370
    60
100
AcDbLine
 10
14.0
 20
69.7500030517578
 30
0.0
 11
14.0
 21
65.0000030517578
 31
0.0
  0
ARC
  5
112
330
1F
100
AcDbEntity
  8
0 (1) (1)
  6
K5LT32769
 62
     5
420
      255
370
    60
100
AcDbCircle
 10
13.7
 20
69.7500030517578
 30
0.0
 40
0.2999999999999972
100
AcDbArc
 50
0.0
 51
90.0
  0
LINE
  5
113
330
1F
100
AcDbEntity
  8
0 (1) (1)
  6
K5LT32769
 62
     5
420
      255
370
    60
100
AcDbLine
 10
13.99999999999999
 20
50.2500030517578
 30
0.0
 11
14.0
 21
55.0000030517578
 31
0.0
  0
ARC
  5
114
330
1F
100
AcDbEntity
  8
0 (1) (1)
  6
K5LT32769
 62
     5
420
      255
370
    60
100
AcDbCircle
 10
13.7
 20
50.2500030517578
 30
0.0
 40
0.2999999999999972
100
AcDbArc
 50
270.0
 51
0.0
  0
LINE
  5
115
330
1F
100
AcDbEntity
  8
0 (1) (1)
  6
K5LT32769
 62
     5
420
      255
370
    60
100
AcDbLine
 10
11.46421337127686
 20
70.05000305175781
 30
0.0
 11
13.69999999999999
 21
70.05000305175781
 31
0.0
  0
LINE
  5
116
330
1F
100
AcDbEntity
  8
0 (1) (1)
  6
K5LT32769
 62
     5
420
      255
370
    60
100
AcDbLine
 10
11.46421222686783
 20
49.9500030517578
 30
0.0
 11
13.7
 21
49.9500030517578
 31
0.0
  0
LINE
  5
117
330
1F
100
AcDbEntity
  8
0 (1) (1)
  6
K5LT32769
 62
     5
420
      255
370
    60
100
AcDbLine
 10
0.0000009536743264
 20
67.0000020980835
 30
0.0
 11
-0.8660244501101146
 21
67.5000020980835
 31
0.0
  0
LINE
  5
118
330
1F
100
AcDbEntity
  8
0 (1) (1)
  6
K5LT32769
 62
     5
420
      255
370
    60
100
AcDbLine
 10
0.0000009536743264
 20
67.0000020980835
 30
0.0
 11
0.8660263574587674
 21
67.5000020980835
 31
0.0
  0
LINE
  5
119
330
1F
100
AcDbEntity
  8
0 (1) (1)
  6
K5LT32769
 62
     5
420
      255
370
    60
100
AcDbLine
 10
0.8660263574587674
 20
67.5000020980835
 30
0.0
 11
6.085786342620852
 21
67.5000020980835
 31
0.0
  0
LINE
  5
11A
330
1F
100
AcDbEntity
  8
0 (1) (1)
  6
K5LT32769
 62
     5
420
      255
370
    60
100
AcDbLine
 10
-0.8660244501101431
 20
67.5000020980835
 30
0.0
 11
-6.085786342620847
 21
67.50000209808348
 31
0.0
  0
LINE
  5
11B
330
1F
100
AcDbEntity
  8
0 (1) (1)
  6
K5LT32769
 62
     5
420
      255
370
    60
100
AcDbLine
 10
5.000000953674327
 20
74.0000020980835
 30
0.0
 11
5.000000953674328
 21
78.5000020980835
 31
0.0
  0
LINE
  5
11C
330
1F
100
AcDbEntity
  8
0 (1) (1)
  6
K5LT32769
 62
     5
420
      255
370
    60
100
AcDbLine
 10
5.000000953674328
 20
78.5000020980835
 30
0.0
 11
5.800000190734874
 21
78.5000020980835
 31
0.0
  0
LINE
  5
11D
330
1F
100
AcDbEntity
  8
0 (1) (1)
  6
K5LT32769
 62
     5
420
      255
370
    60
100
AcDbLine
 10
5.800000190734874
 20
78.5000020980835
 30
0.0
 11
5.800000190734874
 21
80.0000020980835
 31
0.0
  0
LINE
  5
11E
330
1F
100
AcDbEntity
  8
0 (1) (1)
  6
K5LT32769
 62
     5
420
      255
370
    60
100
AcDbLine
 10
-4.999999046325688
 20
74.0000020980835
 30
0.0
 11
-4.999999046325687
 21
78.5000020980835
 31
0.0
  0
LINE
  5
11F
330
1F
100
AcDbEntity
  8
0 (1) (1)
  6
K5LT32769
 62
     5
420
      255
370
    60
100
AcDbLine
 10
-4.999999046325687
 20
78.5000020980835
 30
0.0
 11
-5.799998283386234
 21
78.5000020980835
 31
0.0
  0
LINE
  5
120
330
1F
100
AcDbEntity
  8
0 (1) (1)
  6
K5LT32769
 62
     5
420
      255
370
    60
100
AcDbLine
 10
-5.799998283386241
 20
78.5000020980835
 30
0.0
 11
-5.799998283386241
 21
80.0000020980835
 31
0.0
  0
LINE
  5
121
330
1F
100
AcDbEntity
  8
0 (1) (1)
  6
K5LT32768
 62
     5
420
      255
370
    60
100
AcDbLine
 10
-10.05000019073486
 20
71.46421546936035
 30
0.0
 11
-6.085786342620853
 21
67.50000209808348
 31
0.0
  0
LINE
  5
122
330
1F
100
AcDbEntity
  8
0 (1) (1)
  6
K5LT32768
 62
     5
420
      255
370
    60
100
AcDbLine
 10
6.085786342620852
 20
67.5000020980835
 30
0.0
 11
10.05000019073487
 21
71.46421546936035
 31
0.0
  0
LINE
  5
123
330
1F
100
AcDbEntity
  8
0 (1) (1)
  6
K5LT32769
 62
     5
420
      255
370
    60
100
AcDbLine
 10
9.750000953674327
 20
74.0000020980835
 30
0.0
 11
5.000000953674328
 21
74.0000020980835
 31
0.0
  0
ARC
  5
124
330
1F
100
AcDbEntity
  8
0 (1) (1)
  6
K5LT32769
 62
     5
420
      255
370
    60
100
AcDbCircle
 10
9.750000953674327
 20
73.7000020980835
 30
0.0
 40
0.2999999999999972
100
AcDbArc
 50
0.0
 51
90.0
  0
LINE
  5
125
330
1F
100
AcDbEntity
  8
0 (1) (1)
  6
K5LT32769
 62
     5
420
      255
370
    60
100
AcDbLine
 10
-9.749999046325694
 20
74.00000209808348
 30
0.0
 11
-4.999999046325701
 21
74.00000209808348
 31
0.0
  0
ARC
  5
126
330
1F
100
AcDbEntity
  8
0 (1) (1)
  6
K5LT32769
 62
     5
420
      255
370
    60
100
AcDbCircle
 10
-9.749999046325694
 20
73.7000020980835
 30
0.0
 40
0.2999999999999972
100
AcDbArc
 50
90.0
 51
180.0
  0
LINE
  5
127
330
1F
100
AcDbEntity
  8
0 (1) (1)
  6
K5LT32769
 62
     5
420
      255
370
    60
100
AcDbLine
 10
10.05000095367432
 20
71.46421546936035
 30
0.0
 11
10.05000095367432
 21
73.70000209808349
 31
0.0
  0
LINE
  5
128
330
1F
100
AcDbEntity
  8
0 (1) (1)
  6
K5LT32769
 62
     5
420
      255
370
    60
100
AcDbLine
 10
-10.04999904632568
 20
71.46421432495133
 30
0.0
 11
-10.04999904632568
 21
73.7000020980835
 31
0.0
  0
LINE
  5
129
330
1F
100
AcDbEntity
  8
0 (1) (1)
  6
K5LT32769
 62
     5
420
      255
370
    60
100
AcDbLine
 10
-2.314775227843594
 20
64.96405443521024
 30
0.0
 11
-2.564691689666983
 21
65.5000020980835
 31
0.0
  0
ARC
  5
12A
330
1F
100
AcDbEntity
  8
0 (1) (1)
  6
K5LT32769
 62
     5
420
      255
370
    60
100
AcDbCircle
 10
-1.861621322101567
 20
65.17536353986675
 30
0.0
 40
0.5000000000000001
100
AcDbArc
 50
204.99999668558
 51
289.7840877089553
  0
ARC
  5
12B
330
1F
100
AcDbEntity
  8
0 (1) (1)
  6
K5LT32769
 62
     5
420
      255
370
    60
100
AcDbCircle
 10
0.0000000000000024
 20
60.0000020980835
 30
0.0
 40
4.999999999999999
100
AcDbArc
 50
70.21591229104469
 51
109.7840877089553
  0
ARC
  5
12C
330
1F
100
AcDbEntity
  8
0 (1) (1)
  6
K5LT32769
 62
     5
420
      255
370
    60
100
AcDbCircle
 10
1.861621322101573
 20
65.17536353986675
 30
0.0
 40
0.5000000000000001
100
AcDbArc
 50
250.2159122910445
 51
335.0000033144195
  0
LINE
  5
12D
330
1F
100
AcDbEntity
  8
0 (1) (1)
  6
K5LT32769
 62
     5
420
      255
370
    60
100
AcDbLine
 10
2.3147752278436
 20
64.96405443521024
 30
0.0
 11
2.564691689666989
 21
65.5000020980835
 31
0.0
  0
LINE
  5
12E
330
1F
100
AcDbEntity
  8
0 (1) (1)
  6
K5LT32769
 62
     5
420
      255
370
    60
100
AcDbLine
 10
4.964052337126748
 20
62.31477732592709
 30
0.0
 11
5.500000000000003
 21
62.56469378775048
 31
0.0
  0
ARC
  5
12F
330
1F
100
AcDbEntity
  8
0 (1) (1)
  6
K5LT32769
 62
     5
420
      255
370
    60
100
AcDbCircle
 10
5.175361441783255
 20
61.86162342018507
 30
0.0
 40
0.5000000000000001
100
AcDbArc
 50
114.9999966855802
 51
199.7840877089552
  0
ARC
  5
130
330
1F
100
AcDbEntity
  8
0 (1) (1)
  6
K5LT32769
 62
     5
420
      255
370
    60
100
AcDbCircle
 10
0.0000000000000024
 20
60.0000020980835
 30
0.0
 40
4.999999999999999
100
AcDbArc
 50
340.2159122910447
 51
19.7840877089553
  0
ARC
  5
131
330
1F
100
AcDbEntity
  8
0 (1) (1)
  6
K5LT32769
 62
     5
420
      255
370
    60
100
AcDbCircle
 10
5.175361441783254
 20
58.13838077598193
 30
0.0
 40
0.5
100
AcDbArc
 50
160.2159122910447
 51
245.0000033144201
  0
LINE
  5
132
330
1F
100
AcDbEntity
  8
0 (1) (1)
  6
K5LT32769
 62
     5
420
      255
370
    60
100
AcDbLine
 10
4.964052337126747
 20
57.6852268702399
 30
0.0
 11
5.500000000000002
 21
57.43531040841651
 31
0.0
  0
LINE
  5
133
330
1F
100
AcDbEntity
  8
0 (1) (1)
  6
K5LT32769
 62
     5
420
      255
370
    60
100
AcDbLine
 10
2.314775227843599
 20
55.03594976095675
 30
0.0
 11
2.564691689666988
 21
54.50000209808348
 31
0.0
  0
ARC
  5
134
330
1F
100
AcDbEntity
  8
0 (1) (1)
  6
K5LT32769
 62
     5
420
      255
370
    60
100
AcDbCircle
 10
1.861621322101572
 20
54.82464065630025
 30
0.0
 40
0.5000000000000002
100
AcDbArc
 50
24.99999668558027
 51
109.7840877089553
  0
ARC
  5
135
330
1F
100
AcDbEntity
  8
0 (1) (1)
  6
K5LT32769
 62
     5
420
      255
370
    60
100
AcDbCircle
 10
0.0000000000000024
 20
60.0000020980835
 30
0.0
 40
4.999999999999999
100
AcDbArc
 50
250.2159122910448
 51
289.7840877089553
  0
ARC
  5
136
330
1F
100
AcDbEntity
  8
0 (1) (1)
  6
K5LT32769
 62
     5
420
      255
370
    60
100
AcDbCircle
 10
-1.861621322101568
 20
54.82464065630025
 30
0.0
 40
0.5
100
AcDbArc
 50
70.2159122910447
 51
155.0000033144197
  0
LINE
  5
137
330
1F
100
AcDbEntity
  8
0 (1) (1)
  6
K5LT32769
 62
     5
420
      255
370
    60
100
AcDbLine
 10
-2.314775227843595
 20
55.03594976095675
 30
0.0
 11
-2.564691689666984
 21
54.5000020980835
 31
0.0
  0
LINE
  5
138
330
1F
100
AcDbEntity
  8
0 (1) (1)
  6
K5LT32769
 62
     5
420
      255
370
    60
100
AcDbLine
 10
-4.964052337126743
 20
57.6852268702399
 30
0.0
 11
-5.499999999999998
 21
57.43531040841651
 31
0.0
  0
ARC
  5
139
330
1F
100
AcDbEntity
  8
0 (1) (1)
  6
K5LT32769
 62
     5
420
      255
370
    60
100
AcDbCircle
 10
-5.175361441783251
 20
58.13838077598193
 30
0.0
 40
0.5000000000000001
100
AcDbArc
 50
294.9999966855803
 51
19.78408770895489
  0
ARC
  5
13A
330
1F
100
AcDbEntity
  8
0 (1) (1)
  6
K5LT32769
 62
     5
420
      255
370
    60
100
AcDbCircle
 10
0.0000000000000024
 20
60.0000020980835
 30
0.0
 40
4.999999999999999
100
AcDbArc
 50
160.2159122910448
 51
199.7840877089553
  0
ARC
  5
13B
330
1F
100
AcDbEntity
  8
0 (1) (1)
  6
K5LT32769
 62
     5
420
      255
370
    60
100
AcDbCircle
 10
-5.17536144178325
 20
61.86162342018507
 30
0.0
 40
0.5000000000000001
100
AcDbArc
 50
340.2159122910447
 51
65.00000331442014
  0
LINE
  5
13C
330
1F
100
AcDbEntity
  8
0 (1) (1)
  6
K5LT32769
 62
     5
420
      255
370
    60
100
AcDbLine
 10
-4.964052337126742
 20
62.31477732592709
 30
0.0
 11
-5.499999999999997
 21
62.56469378775048
 31
0.0
  0
ARC
  5
13D
330
1F
100
AcDbEntity
  8
0 (1) (1)
  6
K5LT32768
 62
     5
420
      255
370
    60
100
AcDbCircle
 10
-14.49999987457576
 20
74.50000197265926
 30
0.0
 40
2.750000125424239
100
AcDbArc
 50
90.0
 51
180.0
  0
ARC
  5
13E
330
1F
100
AcDbEntity
  8
0 (1) (1)
  6
K5LT32768
 62
     5
420
      255
370
    60
100
AcDbCircle
 10
-16.99999999999999
 20
69.5000023249813
 30
0.0
 40
1.5
100
AcDbArc
 50
180.0
 51
0.0
  0
LINE
  5
13F
330
1F
100
AcDbEntity
  8
0 (1) (1)
  6
K5LT32768
 62
     5
420
      255
370
    60
100
AcDbLine
 10
-14.49999987457576
 20
77.2500020980835
 30
0.0
 11
-14.49999987457576
 21
78.5000020980835
 31
0.0
  0
LINE
  5
140
330
1F
100
AcDbEntity
  8
0 (1) (1)
  6
K5LT32768
 62
     5
420
      255
370
    60
100
AcDbLine
 10
-14.49999987457576
 20
78.5000020980835
 30
0.0
 11
-9.499999999999996
 21
78.50000209808351
 31
0.0
  0
LINE
  5
141
330
1F
100
AcDbEntity
  8
0 (1) (1)
  6
K5LT32768
 62
     5
420
      255
370
    60
100
AcDbLine
 10
-9.49999999999999
 20
75.50000209808351
 30
0.0
 11
-10.74999974915152
 21
75.50000209808351
 31
0.0
  0
ARC
  5
142
330
1F
100
AcDbEntity
  8
0 (1) (1)
  6
K5LT32768
 62
     5
420
      255
370
    60
100
AcDbCircle
 10
-9.500000226897793
 20
77.00000209808351
 30
0.0
 40
1.5
100
AcDbArc
 50
270.0
 51
90.0
  0
ARC
  5
143
330
1F
100
AcDbEntity
  8
0 (1) (1)
  6
K5LT32768
 62
     5
420
      255
370
    60
100
AcDbCircle
 10
-14.49999987457576
 20
74.50000197265926
 30
0.0
 40
2.750000125424239
100
AcDbArc
 50
270.0
 51
0.0
  0
ARC
  5
144
330
1F
100
AcDbEntity
  8
0 (1) (1)
  6
K5LT32768
 62
     5
420
      255
370
    60
100
AcDbCircle
 10
-14.49999999999999
 20
70.75000184723503
 30
0.0
 40
1.0
100
AcDbArc
 50
90.0
 51
180.0
  0
ARC
  5
145
330
1F
100
AcDbEntity
  8
0 (1) (1)
  6
K5LT32768
 62
     5
420
      255
370
    60
100
AcDbCircle
 10
-10.74999974915152
 20
74.50000209808351
 30
0.0
 40
1.0
100
AcDbArc
 50
90.0
 51
180.0000019163415
  0
LINE
  5
146
330
1F
100
AcDbEntity
  8
0 (1) (1)
  6
K5LT32768
 62
     5
420
      255
370
    60
100
AcDbLine
 10
17.25
 20
74.50000197265926
 30
0.0
 11
18.5
 21
74.50000197265926
 31
0.0
  0
LINE
  5
147
330
1F
100
AcDbEntity
  8
0 (1) (1)
  6
K5LT32768
 62
     5
420
      255
370
    60
100
AcDbLine
 10
18.5
 20
74.50000197265926
 30
0.0
 11
18.5
 21
69.5000020980835
 31
0.0
  0
ARC
  5
148
330
1F
100
AcDbEntity
  8
0 (1) (1)
  6
K5LT32768
 62
     5
420
      255
370
    60
100
AcDbCircle
 10
14.49999987457576
 20
74.50000197265926
 30
0.0
 40
2.750000125424239
100
AcDbArc
 50
0.0
 51
90.0
  0
LINE
  5
149
330
1F
100
AcDbEntity
  8
0 (1) (1)
  6
K5LT32768
 62
     5
420
      255
370
    60
100
AcDbLine
 10
14.49999987457578
 20
77.2500020980835
 30
0.0
 11
14.49999987457578
 21
78.5000020980835
 31
0.0
  0
ARC
  5
14A
330
1F
100
AcDbEntity
  8
0 (1) (1)
  6
K5LT32768
 62
     5
420
      255
370
    60
100
AcDbCircle
 10
14.49999987457576
 20
74.50000197265926
 30
0.0
 40
2.750000125424239
100
AcDbArc
 50
179.9999980836588
 51
270.0
  0
ARC
  5
14B
330
1F
100
AcDbEntity
  8
0 (1) (1)
  6
K5LT32768
 62
     5
420
      255
370
    60
100
AcDbCircle
 10
14.5
 20
70.75000184723501
 30
0.0
 40
1.0
100
AcDbArc
 50
0.0
 51
90.0
  0
ARC
  5
14C
330
1F
100
AcDbEntity
  8
0 (1) (1)
  6
K5LT32768
 62
     5
420
      255
370
    60
100
AcDbCircle
 10
10.74999974915153
 20
74.50000209808351
 30
0.0
 40
1.0
100
AcDbArc
 50
0.0
 51
90.0
  0
ARC
  5
14D
330
1F
100
AcDbEntity
  8
0 (1) (1)
  6
K5LT32768
 62
     5
420
      255
370
    60
100
AcDbCircle
 10
17.0
 20
69.5000023249813
 30
0.0
 40
1.5
100
AcDbArc
 50
180.0
 51
0.0
  0
LINE
  5
14E
330
1F
100
AcDbEntity
  8
0 (1) (1)
  6
K5LT32768
 62
     5
420
      255
370
    60
100
AcDbLine
 10
14.49999987457578
 20
78.5000020980835
 30
0.0
 11
9.500000000000025
 21
78.50000209808351
 31
0.0
  0
LINE
  5
14F
330
1F
100
AcDbEntity
  8
0 (1) (1)
  6
K5LT32768
 62
     5
420
      255
370
    60
100
AcDbLine
 10
9.50000000000001
 20
75.50000209808351
 30
0.0
 11
10.74999974915153
 21
75.50000209808351
 31
0.0
  0
ARC
  5
150
330
1F
100
AcDbEntity
  8
0 (1) (1)
  6
K5LT32768
 62
     5
420
      255
370
    60
100
AcDbCircle
 10
9.500000226897807
 20
77.00000209808351
 30
0.0
 40
1.5
100
AcDbArc
 50
90.0
 51
270.0
  0
LINE
  5
151
330
1F
100
AcDbEntity
  8
0 (1) (1)
  6
K5LT32768
 62
     5
420
      255
370
    60
100
AcDbLine
 10
15.5
 20
69.5000020980835
 30
0.0
 11
15.5
 21
70.75000184723501
 31
0.0
  0
LINE
  5
153
330
1F
100
AcDbEntity
  8
0 (1) (1)
  6
K5LT32770
 62
     5
420
      255
370
    60
100
AcDbLine
 10
-19.0
 20
34.00000228881838
 30
0.0
 11
-19.0
 21
46.00000228881838
 31
0.0
  0
LINE
  5
154
330
1F
100
AcDbEntity
  8
0 (1) (1)
  6
K5LT32770
 62
     5
420
      255
370
    60
100
AcDbLine
 10
-19.0
 20
34.00000228881838
 30
0.0
 11
-20.0
 21
34.00000228881838
 31
0.0
  0
LINE
  5
155
330
1F
100
AcDbEntity
  8
0 (1) (1)
  6
K5LT32770
 62
     5
420
      255
370
    60
100
AcDbLine
 10
-19.0
 20
46.00000228881838
 30
0.0
 11
-20.0
 21
46.00000228881838
 31
0.0
  0
LINE
  5
156
330
1F
100
AcDbEntity
  8
0 (1) (1)
  6
K5LT32770
 62
     5
420
      255
370
    60
100
AcDbLine
 10
19.00000190734865
 20
34.00000228881838
 30
0.0
 11
19.00000190734865
 21
46.00000228881838
 31
0.0
  0
LINE
  5
157
330
1F
100
AcDbEntity
  8
0 (1) (1)
  6
K5LT32770
 62
     5
420
      255
370
    60
100
AcDbLine
 10
19.00000190734865
 20
34.00000228881838
 30
0.0
 11
20.00000190734865
 21
34.00000228881838
 31
0.0
  0
LINE
  5
158
330
1F
100
AcDbEntity
  8
0 (1) (1)
  6
K5LT32770
 62
     5
420
      255
370
    60
100
AcDbLine
 10
19.00000190734865
 20
46.00000228881838
 30
0.0
 11
20.00000190734865
 21
46.00000228881838
 31
0.0
  0
LINE
  5
159
330
1F
100
AcDbEntity
  8
0 (1) (1)
  6
K5LT32768
 62
     5
420
      255
370
    60
100
AcDbLine
 10
20.00000190734865
 20
54.20000190734862
 30
0.0
 11
20.00000190734865
 21
46.00000228881838
 31
0.0
  0
LINE
  5
15A
330
1F
100
AcDbEntity
  8
0 (1) (1)
  6
K5LT32768
 62
     5
420
      255
370
    60
100
AcDbLine
 10
20.00000190734865
 20
25.80000228881838
 30
0.0
 11
20.00000190734865
 21
34.00000228881838
 31
0.0
  0
LINE
  5
15B
330
1F
100
AcDbEntity
  8
0 (1) (1)
  6
K5LT32770
 62
     5
420
      255
370
    60
100
AcDbLine
 10
5.671572437626909
 20
52.50000228881838
 30
0.0
 11
-5.671572437626906
 21
52.50000228881838
 31
0.0
  0
LINE
  5
15C
330
1F
100
AcDbEntity
  8
0 (1) (1)
  6
K5LT32770
 62
     5
420
      255
370
    60
100
AcDbLine
 10
5.671572437626907
 20
27.50000228881838
 30
0.0
 11
-5.671572437626907
 21
27.50000228881838
 31
0.0
  0
ARC
  5
15D
330
1F
100
AcDbEntity
  8
0 (1) (1)
  6
K5LT32770
 62
     5
420
      255
370
    60
100
AcDbCircle
 10
-5.671572437626907
 20
28.50000228881838
 30
0.0
 40
1.0
100
AcDbArc
 50
225.0
 51
270.0
  0
ARC
  5
15E
330
1F
100
AcDbEntity
  8
0 (1) (1)
  6
K5LT32770
 62
     5
420
      255
370
    60
100
AcDbCircle
 10
-5.671572437626906
 20
51.50000228881838
 30
0.0
 40
1.0
100
AcDbArc
 50
90.0
 51
135.0
  0
ARC
  5
15F
330
1F
100
AcDbEntity
  8
0 (1) (1)
  6
K5LT32770
 62
     5
420
      255
370
    60
100
AcDbCircle
 10
5.671572437626909
 20
51.50000228881838
 30
0.0
 40
1.0
100
AcDbArc
 50
44.99999999999989
 51
90.0
  0
ARC
  5
160
330
1F
100
AcDbEntity
  8
0 (1) (1)
  6
K5LT32770
 62
     5
420
      255
370
    60
100
AcDbCircle
 10
5.671572437626907
 20
28.50000228881838
 30
0.0
 40
1.0
100
AcDbArc
 50
270.0
 51
314.9999999999999
  0
LINE
  5
161
330
1F
100
AcDbEntity
  8
0 (1) (1)
  6
K5LT32768
 62
     5
420
      255
370
    60
100
AcDbLine
 10
-11.46421337127686
 20
9.95000000000001
 30
0.0
 11
-7.5
 21
13.91421384811402
 31
0.0
  0
LINE
  5
162
330
1F
100
AcDbEntity
  8
0 (1) (1)
  6
K5LT32768
 62
     5
420
      255
370
    60
100
AcDbLine
 10
-5.5
 20
14.50000019073488
 30
0.0
 11
-2.564691689666986
 21
14.50000019073488
 31
0.0
  0
LINE
  5
163
330
1F
100
AcDbEntity
  8
0 (1) (1)
  6
K5LT32768
 62
     5
420
      255
370
    60
100
AcDbLine
 10
2.564691689666986
 20
14.50000019073488
 30
0.0
 11
5.5
 21
14.50000019073488
 31
0.0
  0
LINE
  5
164
330
1F
100
AcDbEntity
  8
0 (1) (1)
  6
K5LT32768
 62
     5
420
      255
370
    60
100
AcDbLine
 10
5.5
 20
14.50000019073488
 30
0.0
 11
5.5
 21
17.43530850106789
 31
0.0
  0
LINE
  5
165
330
1F
100
AcDbEntity
  8
0 (1) (1)
  6
K5LT32768
 62
     5
420
      255
370
    60
100
AcDbLine
 10
-5.5
 20
17.43530850106789
 30
0.0
 11
-5.5
 21
14.50000019073488
 31
0.0
  0
LINE
  5
166
330
1F
100
AcDbEntity
  8
0 (1) (1)
  6
K5LT32768
 62
     5
420
      255
370
    60
100
AcDbLine
 10
-20.0
 20
14.2
 30
0.0
 11
-20.0
 21
6.0
 31
0.0
  0
LINE
  5
167
330
1F
100
AcDbEntity
  8
0 (1) (1)
  6
K5LT32769
 62
     5
420
      255
370
    60
100
AcDbLine
 10
-13.99999999999999
 20
10.25000114440918
 30
0.0
 11
-14.0
 21
15.00000114440917
 31
0.0
  0
ARC
  5
168
330
1F
100
AcDbEntity
  8
0 (1) (1)
  6
K5LT32769
 62
     5
420
      255
370
    60
100
AcDbCircle
 10
-13.7
 20
10.25000114440918
 30
0.0
 40
0.2999999999999972
100
AcDbArc
 50
179.9999999999987
 51
270.0
  0
LINE
  5
169
330
1F
100
AcDbEntity
  8
0 (1) (1)
  6
K5LT32769
 62
     5
420
      255
370
    60
100
AcDbLine
 10
-7.0
 20
20.00000114440919
 30
0.0
 11
-7.5
 21
19.13397574062475
 31
0.0
  0
LINE
  5
16A
330
1F
100
AcDbEntity
  8
0 (1) (1)
  6
K5LT32769
 62
     5
420
      255
370
    60
100
AcDbLine
 10
-7.5
 20
19.13397574062473
 30
0.0
 11
-7.499999999999993
 21
13.91421384811403
 31
0.0
  0
LINE
  5
16B
330
1F
100
AcDbEntity
  8
0 (1) (1)
  6
K5LT32769
 62
     5
420
      255
370
    60
100
AcDbLine
 10
-14.0
 20
15.00000114440918
 30
0.0
 11
-18.5
 21
15.00000114440918
 31
0.0
  0
LINE
  5
16C
330
1F
100
AcDbEntity
  8
0 (1) (1)
  6
K5LT32769
 62
     5
420
      255
370
    60
100
AcDbLine
 10
-18.5
 20
15.00000114440918
 30
0.0
 11
-18.5
 21
14.20000190734863
 31
0.0
  0
LINE
  5
16D
330
1F
100
AcDbEntity
  8
0 (1) (1)
  6
K5LT32769
 62
     5
420
      255
370
    60
100
AcDbLine
 10
-18.5
 20
14.20000190734863
 30
0.0
 11
-20.0
 21
14.20000190734863
 31
0.0
  0
LINE
  5
16E
330
1F
100
AcDbEntity
  8
0 (1) (1)
  6
K5LT32769
 62
     5
420
      255
370
    60
100
AcDbLine
 10
-11.46421222686783
 20
9.950001144409178
 30
0.0
 11
-13.7
 21
9.950001144409178
 31
0.0
  0
LINE
  5
16F
330
1F
100
AcDbEntity
  8
0 (1) (1)
  6
K5LT32769
 62
     5
420
      255
370
    60
100
AcDbLine
 10
7.0
 20
20.00000114440919
 30
0.0
 11
7.5
 21
19.13397574062475
 31
0.0
  0
LINE
  5
170
330
1F
100
AcDbEntity
  8
0 (1) (1)
  6
K5LT32769
 62
     5
420
      255
370
    60
100
AcDbLine
 10
7.5
 20
19.13397574062473
 30
0.0
 11
7.499999999999993
 21
13.91421384811403
 31
0.0
  0
LINE
  5
171
330
1F
100
AcDbEntity
  8
0 (1) (1)
  6
K5LT32769
 62
     5
420
      255
370
    60
100
AcDbLine
 10
14.0
 20
15.00000114440918
 30
0.0
 11
18.5
 21
15.00000114440918
 31
0.0
  0
LINE
  5
172
330
1F
100
AcDbEntity
  8
0 (1) (1)
  6
K5LT32769
 62
     5
420
      255
370
    60
100
AcDbLine
 10
18.5
 20
15.00000114440918
 30
0.0
 11
18.5
 21
14.20000190734863
 31
0.0
  0
LINE
  5
173
330
1F
100
AcDbEntity
  8
0 (1) (1)
  6
K5LT32769
 62
     5
420
      255
370
    60
100
AcDbLine
 10
18.5
 20
14.20000190734863
 30
0.0
 11
20.0
 21
14.20000190734863
 31
0.0
  0
LINE
  5
174
330
1F
100
AcDbEntity
  8
0 (1) (1)
  6
K5LT32768
 62
     5
420
      255
370
    60
100
AcDbLine
 10
11.46421337127686
 20
9.95000000000001
 30
0.0
 11
7.499999999999994
 21
13.91421384811402
 31
0.0
  0
LINE
  5
175
330
1F
100
AcDbEntity
  8
0 (1) (1)
  6
K5LT32769
 62
     5
420
      255
370
    60
100
AcDbLine
 10
13.99999999999999
 20
10.25000114440918
 30
0.0
 11
14.0
 21
15.00000114440917
 31
0.0
  0
ARC
  5
176
330
1F
100
AcDbEntity
  8
0 (1) (1)
  6
K5LT32769
 62
     5
420
      255
370
    60
100
AcDbCircle
 10
13.7
 20
10.25000114440918
 30
0.0
 40
0.2999999999999972
100
AcDbArc
 50
270.0
 51
0.0
  0
LINE
  5
177
330
1F
100
AcDbEntity
  8
0 (1) (1)
  6
K5LT32769
 62
     5
420
      255
370
    60
100
AcDbLine
 10
11.46421222686783
 20
9.950001144409178
 30
0.0
 11
13.7
 21
9.950001144409178
 31
0.0
  0
ARC
  5
178
330
1F
100
AcDbEntity
  8
0 (1) (1)
  6
K5LT32769
 62
     5
420
      255
370
    60
100
AcDbCircle
 10
5.175361441783252
 20
18.13837886863331
 30
0.0
 40
0.5
100
AcDbArc
 50
160.2159122910447
 51
245.0000033144199
  0
LINE
  5
179
330
1F
100
AcDbEntity
  8
0 (1) (1)
  6
K5LT32769
 62
     5
420
      255
370
    60
100
AcDbLine
 10
4.964052337126745
 20
17.68522496289128
 30
0.0
 11
5.5
 21
17.43530850106789
 31
0.0
  0
LINE
  5
17A
330
1F
100
AcDbEntity
  8
0 (1) (1)
  6
K5LT32769
 62
     5
420
      255
370
    60
100
AcDbLine
 10
2.314775227843597
 20
15.03594785360813
 30
0.0
 11
2.564691689666986
 21
14.50000019073487
 31
0.0
  0
ARC
  5
17B
330
1F
100
AcDbEntity
  8
0 (1) (1)
  6
K5LT32769
 62
     5
420
      255
370
    60
100
AcDbCircle
 10
1.86162132210157
 20
14.82463874895162
 30
0.0
 40
0.5000000000000001
100
AcDbArc
 50
24.99999668558009
 51
109.7840877089554
  0
ARC
  5
17C
330
1F
100
AcDbEntity
  8
0 (1) (1)
  6
K5LT32769
 62
     5
420
      255
370
    60
100
AcDbCircle
 10
0.0
 20
20.00000019073488
 30
0.0
 40
4.999999999999999
100
AcDbArc
 50
250.2159122910448
 51
289.7840877089553
  0
ARC
  5
17D
330
1F
100
AcDbEntity
  8
0 (1) (1)
  6
K5LT32769
 62
     5
420
      255
370
    60
100
AcDbCircle
 10
-1.86162132210157
 20
14.82463874895162
 30
0.0
 40
0.5
100
AcDbArc
 50
70.21591229104475
 51
155.0000033144203
  0
LINE
  5
17E
330
1F
100
AcDbEntity
  8
0 (1) (1)
  6
K5LT32769
 62
     5
420
      255
370
    60
100
AcDbLine
 10
-2.314775227843596
 20
15.03594785360813
 30
0.0
 11
-2.564691689666986
 21
14.50000019073487
 31
0.0
  0
LINE
  5
17F
330
1F
100
AcDbEntity
  8
0 (1) (1)
  6
K5LT32769
 62
     5
420
      255
370
    60
100
AcDbLine
 10
-4.964052337126745
 20
17.68522496289128
 30
0.0
 11
-5.5
 21
17.43530850106789
 31
0.0
  0
ARC
  5
180
330
1F
100
AcDbEntity
  8
0 (1) (1)
  6
K5LT32769
 62
     5
420
      255
370
    60
100
AcDbCircle
 10
-5.175361441783252
 20
18.13837886863331
 30
0.0
 40
0.5000000000000001
100
AcDbArc
 50
294.99999668558
 51
19.7840877089553
  0
LINE
  5
181
330
1F
100
AcDbEntity
  8
0 (1) (1)
  6
K5LT32768
 62
     5
420
      255
370
    60
100
AcDbLine
 10
-11.46421337127686
 20
-9.949999618530256
 30
0.0
 11
-7.499999999999998
 21
-13.91421346664427
 31
0.0
  0
LINE
  5
182
330
1F
100
AcDbEntity
  8
0 (1) (1)
  6
K5LT32768
 62
     5
420
      255
370
    60
100
AcDbLine
 10
-5.499999999999998
 20
-14.49999980926512
 30
0.0
 11
-2.564691689666984
 21
-14.49999980926512
 31
0.0
  0
LINE
  5
183
330
1F
100
AcDbEntity
  8
0 (1) (1)
  6
K5LT32768
 62
     5
420
      255
370
    60
100
AcDbLine
 10
2.564691689666988
 20
-14.49999980926512
 30
0.0
 11
5.500000000000002
 21
-14.49999980926512
 31
0.0
  0
LINE
  5
184
330
1F
100
AcDbEntity
  8
0 (1) (1)
  6
K5LT32768
 62
     5
420
      255
370
    60
100
AcDbLine
 10
5.500000000000002
 20
-14.49999980926512
 30
0.0
 11
5.500000000000002
 21
-17.43530811959813
 31
0.0
  0
LINE
  5
185
330
1F
100
AcDbEntity
  8
0 (1) (1)
  6
K5LT32768
 62
     5
420
      255
370
    60
100
AcDbLine
 10
-5.499999999999998
 20
-17.43530811959813
 30
0.0
 11
-5.499999999999998
 21
-14.49999980926512
 31
0.0
  0
LINE
  5
186
330
1F
100
AcDbEntity
  8
0 (1) (1)
  6
K5LT32768
 62
     5
420
      255
370
    60
100
AcDbLine
 10
-20.0
 20
-14.19999961853024
 30
0.0
 11
-20.0
 21
-6.0
 31
0.0
  0
LINE
  5
187
330
1F
100
AcDbEntity
  8
0 (1) (1)
  6
K5LT32769
 62
     5
420
      255
370
    60
100
AcDbLine
 10
-13.99999999999999
 20
-10.25000076293942
 30
0.0
 11
-14.0
 21
-15.00000076293942
 31
0.0
  0
ARC
  5
188
330
1F
100
AcDbEntity
  8
0 (1) (1)
  6
K5LT32769
 62
     5
420
      255
370
    60
100
AcDbCircle
 10
-13.7
 20
-10.25000076293942
 30
0.0
 40
0.2999999999999972
100
AcDbArc
 50
90.0
 51
180.0000000000013
  0
LINE
  5
189
330
1F
100
AcDbEntity
  8
0 (1) (1)
  6
K5LT32769
 62
     5
420
      255
370
    60
100
AcDbLine
 10
-6.999999999999998
 20
-20.00000076293943
 30
0.0
 11
-7.499999999999998
 21
-19.133975359155
 31
0.0
  0
LINE
  5
18A
330
1F
100
AcDbEntity
  8
0 (1) (1)
  6
K5LT32769
 62
     5
420
      255
370
    60
100
AcDbLine
 10
-7.499999999999998
 20
-19.13397535915497
 30
0.0
 11
-7.499999999999991
 21
-13.91421346664427
 31
0.0
  0
LINE
  5
18B
330
1F
100
AcDbEntity
  8
0 (1) (1)
  6
K5LT32769
 62
     5
420
      255
370
    60
100
AcDbLine
 10
-14.0
 20
-15.00000076293942
 30
0.0
 11
-18.5
 21
-15.00000076293942
 31
0.0
  0
LINE
  5
18C
330
1F
100
AcDbEntity
  8
0 (1) (1)
  6
K5LT32769
 62
     5
420
      255
370
    60
100
AcDbLine
 10
-18.5
 20
-15.00000076293942
 30
0.0
 11
-18.5
 21
-14.20000152587887
 31
0.0
  0
LINE
  5
18D
330
1F
100
AcDbEntity
  8
0 (1) (1)
  6
K5LT32769
 62
     5
420
      255
370
    60
100
AcDbLine
 10
-18.5
 20
-14.20000152587888
 30
0.0
 11
-20.0
 21
-14.20000152587888
 31
0.0
  0
LINE
  5
18E
330
1F
100
AcDbEntity
  8
0 (1) (1)
  6
K5LT32769
 62
     5
420
      255
370
    60
100
AcDbLine
 10
-11.46421222686783
 20
-9.950000762939425
 30
0.0
 11
-13.7
 21
-9.950000762939425
 31
0.0
  0
LINE
  5
18F
330
1F
100
AcDbEntity
  8
0 (1) (1)
  6
K5LT32769
 62
     5
420
      255
370
    60
100
AcDbLine
 10
7.000000000000002
 20
-20.00000076293943
 30
0.0
 11
7.500000000000002
 21
-19.13397535915499
 31
0.0
  0
LINE
  5
190
330
1F
100
AcDbEntity
  8
0 (1) (1)
  6
K5LT32769
 62
     5
420
      255
370
    60
100
AcDbLine
 10
7.500000000000002
 20
-19.13397535915497
 30
0.0
 11
7.499999999999995
 21
-13.91421346664427
 31
0.0
  0
LINE
  5
191
330
1F
100
AcDbEntity
  8
0 (1) (1)
  6
K5LT32769
 62
     5
420
      255
370
    60
100
AcDbLine
 10
14.0
 20
-15.00000076293942
 30
0.0
 11
18.5
 21
-15.00000076293942
 31
0.0
  0
LINE
  5
192
330
1F
100
AcDbEntity
  8
0 (1) (1)
  6
K5LT32769
 62
     5
420
      255
370
    60
100
AcDbLine
 10
18.5
 20
-15.00000076293942
 30
0.0
 11
18.5
 21
-14.20000152587887
 31
0.0
  0
LINE
  5
193
330
1F
100
AcDbEntity
  8
0 (1) (1)
  6
K5LT32769
 62
     5
420
      255
370
    60
100
AcDbLine
 10
18.5
 20
-14.20000152587887
 30
0.0
 11
20.0
 21
-14.20000152587887
 31
0.0
  0
LINE
  5
194
330
1F
100
AcDbEntity
  8
0 (1) (1)
  6
K5LT32768
 62
     5
420
      255
370
    60
100
AcDbLine
 10
11.46421337127686
 20
-9.949999618530256
 30
0.0
 11
7.499999999999996
 21
-13.91421346664426
 31
0.0
  0
LINE
  5
195
330
1F
100
AcDbEntity
  8
0 (1) (1)
  6
K5LT32769
 62
     5
420
      255
370
    60
100
AcDbLine
 10
13.99999999999999
 20
-10.25000076293942
 30
0.0
 11
14.0
 21
-15.00000076293942
 31
0.0
  0
ARC
  5
196
330
1F
100
AcDbEntity
  8
0 (1) (1)
  6
K5LT32769
 62
     5
420
      255
370
    60
100
AcDbCircle
 10
13.7
 20
-10.25000076293942
 30
0.0
 40
0.2999999999999972
100
AcDbArc
 50
0.0
 51
90.0
  0
LINE
  5
197
330
1F
100
AcDbEntity
  8
0 (1) (1)
  6
K5LT32769
 62
     5
420
      255
370
    60
100
AcDbLine
 10
11.46421222686783
 20
-9.950000762939425
 30
0.0
 11
13.7
 21
-9.950000762939425
 31
0.0
  0
ARC
  5
198
330
1F
100
AcDbEntity
  8
0 (1) (1)
  6
K5LT32769
 62
     5
420
      255
370
    60
100
AcDbCircle
 10
0.0000000000000024
 20
-19.99999980926512
 30
0.0
 40
4.999999999999999
100
AcDbArc
 50
340.2159122910447
 51
19.78408770895532
  0
ARC
  5
199
330
1F
100
AcDbEntity
  8
0 (1) (1)
  6
K5LT32769
 62
     5
420
      255
370
    60
100
AcDbCircle
 10
5.175361441783254
 20
-18.13837848716355
 30
0.0
 40
0.5
100
AcDbArc
 50
114.9999966855797
 51
199.7840877089553
  0
LINE
  5
19A
330
1F
100
AcDbEntity
  8
0 (1) (1)
  6
K5LT32769
 62
     5
420
      255
370
    60
100
AcDbLine
 10
4.964052337126747
 20
-17.68522458142152
 30
0.0
 11
5.500000000000002
 21
-17.43530811959813
 31
0.0
  0
LINE
  5
19B
330
1F
100
AcDbEntity
  8
0 (1) (1)
  6
K5LT32769
 62
     5
420
      255
370
    60
100
AcDbLine
 10
2.314775227843599
 20
-15.03594747213837
 30
0.0
 11
2.564691689666988
 21
-14.49999980926511
 31
0.0
  0
ARC
  5
19C
330
1F
100
AcDbEntity
  8
0 (1) (1)
  6
K5LT32769
 62
     5
420
      255
370
    60
100
AcDbCircle
 10
1.861621322101572
 20
-14.82463836748187
 30
0.0
 40
0.5000000000000002
100
AcDbArc
 50
250.2159122910448
 51
335.0000033144195
  0
ARC
  5
19D
330
1F
100
AcDbEntity
  8
0 (1) (1)
  6
K5LT32769
 62
     5
420
      255
370
    60
100
AcDbCircle
 10
0.0000000000000024
 20
-19.99999980926512
 30
0.0
 40
4.999999999999999
100
AcDbArc
 50
70.21591229104473
 51
109.7840877089552
  0
ARC
  5
19E
330
1F
100
AcDbEntity
  8
0 (1) (1)
  6
K5LT32769
 62
     5
420
      255
370
    60
100
AcDbCircle
 10
-1.861621322101568
 20
-14.82463836748187
 30
0.0
 40
0.5
100
AcDbArc
 50
204.9999966855804
 51
289.7840877089552
  0
LINE
  5
19F
330
1F
100
AcDbEntity
  8
0 (1) (1)
  6
K5LT32769
 62
     5
420
      255
370
    60
100
AcDbLine
 10
-2.314775227843595
 20
-15.03594747213837
 30
0.0
 11
-2.564691689666984
 21
-14.49999980926512
 31
0.0
  0
LINE
  5
1A0
330
1F
100
AcDbEntity
  8
0 (1) (1)
  6
K5LT32769
 62
     5
420
      255
370
    60
100
AcDbLine
 10
-4.964052337126743
 20
-17.68522458142152
 30
0.0
 11
-5.499999999999998
 21
-17.43530811959813
 31
0.0
  0
ARC
  5
1A1
330
1F
100
AcDbEntity
  8
0 (1) (1)
  6
K5LT32769
 62
     5
420
      255
370
    60
100
AcDbCircle
 10
-5.175361441783251
 20
-18.13837848716355
 30
0.0
 40
0.5000000000000001
100
AcDbArc
 50
340.2159122910447
 51
65.00000331442004
  0
ARC
  5
1A2
330
1F
100
AcDbEntity
  8
0 (1) (1)
  6
K5LT32769
 62
     5
420
      255
370
    60
100
AcDbCircle
 10
0.0000000000000024
 20
-19.99999980926512
 30
0.0
 40
4.999999999999999
100
AcDbArc
 50
160.2159122910447
 51
199.7840877089551
  0
LINE
  5
1A3
330
1F
100
AcDbEntity
  8
0 (1) (1)
  6
K5LT32770
 62
     5
420
      255
370
    60
100
AcDbLine
 10
-19.0
 20
6.0
 30
0.0
 11
-19.0
 21
-6.0
 31
0.0
  0
LINE
  5
1A4
330
1F
100
AcDbEntity
  8
0 (1) (1)
  6
K5LT32770
 62
     5
420
      255
370
    60
100
AcDbLine
 10
-19.0
 20
6.0
 30
0.0
 11
-20.0
 21
6.0
 31
0.0
  0
LINE
  5
1A5
330
1F
100
AcDbEntity
  8
0 (1) (1)
  6
K5LT32770
 62
     5
420
      255
370
    60
100
AcDbLine
 10
-19.0
 20
-6.0
 30
0.0
 11
-20.0
 21
-6.0
 31
0.0
  0
LINE
  5
1A6
330
1F
100
AcDbEntity
  8
0 (1) (1)
  6
K5LT32770
 62
     5
420
      255
370
    60
100
AcDbLine
 10
19.00000190734865
 20
6.0
 30
0.0
 11
19.00000190734865
 21
-6.0
 31
0.0
  0
LINE
  5
1A7
330
1F
100
AcDbEntity
  8
0 (1) (1)
  6
K5LT32770
 62
     5
420
      255
370
    60
100
AcDbLine
 10
19.00000190734865
 20
6.0
 30
0.0
 11
20.00000190734865
 21
6.0
 31
0.0
  0
LINE
  5
1A8
330
1F
100
AcDbEntity
  8
0 (1) (1)
  6
K5LT32770
 62
     5
420
      255
370
    60
100
AcDbLine
 10
19.00000190734865
 20
-6.0
 30
0.0
 11
20.00000190734865
 21
-6.0
 31
0.0
  0
LINE
  5
1A9
330
1F
100
AcDbEntity
  8
0 (1) (1)
  6
K5LT32768
 62
     5
420
      255
370
    60
100
AcDbLine
 10
20.00000190734865
 20
-14.19999961853024
 30
0.0
 11
20.00000190734865
 21
-6.0
 31
0.0
  0
LINE
  5
1AA
330
1F
100
AcDbEntity
  8
0 (1) (1)
  6
K5LT32768
 62
     5
420
      255
370
    60
100
AcDbLine
 10
20.00000190734865
 20
14.2
 30
0.0
 11
20.00000190734865
 21
6.0
 31
0.0
  0
LINE
  5
1AB
330
1F
100
AcDbEntity
  8
0 (1) (1)
  6
K5LT32770
 62
     5
420
      255
370
    60
100
AcDbLine
 10
5.671572437626909
 20
-12.5
 30
0.0
 11
-5.671572437626906
 21
-12.5
 31
0.0
  0
LINE
  5
1AC
330
1F
100
AcDbEntity
  8
0 (1) (1)
  6
K5LT32770
 62
     5
420
      255
370
    60
100
AcDbLine
 10
5.671572437626907
 20
12.5
 30
0.0
 11
-5.671572437626907
 21
12.5
 31
0.0
  0
ARC
  5
1AD
330
1F
100
AcDbEntity
  8
0 (1) (1)
  6
K5LT32770
 62
     5
420
      255
370
    60
100
AcDbCircle
 10
-5.671572437626907
 20
11.5
 30
0.0
 40
1.0
100
AcDbArc
 50
90.0
 51
135.0000000000001
  0
ARC
  5
1AE
330
1F
100
AcDbEntity
  8
0 (1) (1)
  6
K5LT32770
 62
     5
420
      255
370
    60
100
AcDbCircle
 10
-5.671572437626906
 20
-11.5
 30
0.0
 40
1.0
100
AcDbArc
 50
224.9999999999999
 51
270.0
  0
ARC
  5
1AF
330
1F
100
AcDbEntity
  8
0 (1) (1)
  6
K5LT32770
 62
     5
420
      255
370
    60
100
AcDbCircle
 10
5.671572437626909
 20
-11.5
 30
0.0
 40
1.0
100
AcDbArc
 50
270.0
 51
315.0000000000001
  0
ARC
  5
1B0
330
1F
100
AcDbEntity
  8
0 (1) (1)
  6
K5LT32770
 62
     5
420
      255
370
    60
100
AcDbCircle
 10
5.671572437626907
 20
11.5
 30
0.0
 40
1.0
100
AcDbArc
 50
44.99999999999996
 51
90.0
  0
LINE
  5
1B1
330
1F
100
AcDbEntity
  8
0 (1) (1)
  6
K5LT32768
 62
     5
420
      255
370
    60
100
AcDbLine
 10
-11.46421337127686
 20
-30.0500019073486
 30
0.0
 11
-7.499999999999998
 21
-26.08578805923459
 31
0.0
  0
LINE
  5
1B2
330
1F
100
AcDbEntity
  8
0 (1) (1)
  6
K5LT32768
 62
     5
420
      255
370
    60
100
AcDbLine
 10
-5.499999999999998
 20
-25.50000171661374
 30
0.0
 11
-2.564691689666984
 21
-25.50000171661374
 31
0.0
  0
LINE
  5
1B3
330
1F
100
AcDbEntity
  8
0 (1) (1)
  6
K5LT32768
 62
     5
420
      255
370
    60
100
AcDbLine
 10
2.564691689666988
 20
-25.50000171661374
 30
0.0
 11
5.500000000000002
 21
-25.50000171661374
 31
0.0
  0
LINE
  5
1B4
330
1F
100
AcDbEntity
  8
0 (1) (1)
  6
K5LT32768
 62
     5
420
      255
370
    60
100
AcDbLine
 10
5.500000000000002
 20
-25.50000171661374
 30
0.0
 11
5.500000000000002
 21
-22.56469340628072
 31
0.0
  0
LINE
  5
1B5
330
1F
100
AcDbEntity
  8
0 (1) (1)
  6
K5LT32768
 62
     5
420
      255
370
    60
100
AcDbLine
 10
-5.499999999999998
 20
-22.56469340628072
 30
0.0
 11
-5.499999999999998
 21
-25.50000171661374
 31
0.0
  0
LINE
  5
1B6
330
1F
100
AcDbEntity
  8
0 (1) (1)
  6
K5LT32768
 62
     5
420
      255
370
    60
100
AcDbLine
 10
-20.0
 20
-25.80000190734862
 30
0.0
 11
-20.0
 21
-34.00000152587886
 31
0.0
  0
LINE
  5
1B7
330
1F
100
AcDbEntity
  8
0 (1) (1)
  6
K5LT32769
 62
     5
420
      255
370
    60
100
AcDbLine
 10
-13.99999999999999
 20
-29.75000076293944
 30
0.0
 11
-14.0
 21
-25.00000076293944
 31
0.0
  0
ARC
  5
1B8
330
1F
100
AcDbEntity
  8
0 (1) (1)
  6
K5LT32769
 62
     5
420
      255
370
    60
100
AcDbCircle
 10
-13.7
 20
-29.75000076293944
 30
0.0
 40
0.2999999999999972
100
AcDbArc
 50
179.9999999999987
 51
270.0
  0
LINE
  5
1B9
330
1F
100
AcDbEntity
  8
0 (1) (1)
  6
K5LT32769
 62
     5
420
      255
370
    60
100
AcDbLine
 10
-6.999999999999998
 20
-20.00000076293943
 30
0.0
 11
-7.499999999999998
 21
-20.86602616672386
 31
0.0
  0
LINE
  5
1BA
330
1F
100
AcDbEntity
  8
0 (1) (1)
  6
K5LT32769
 62
     5
420
      255
370
    60
100
AcDbLine
 10
-7.499999999999998
 20
-20.86602616672388
 30
0.0
 11
-7.499999999999991
 21
-26.08578805923459
 31
0.0
  0
LINE
  5
1BB
330
1F
100
AcDbEntity
  8
0 (1) (1)
  6
K5LT32769
 62
     5
420
      255
370
    60
100
AcDbLine
 10
-14.0
 20
-25.00000076293944
 30
0.0
 11
-18.5
 21
-25.00000076293944
 31
0.0
  0
LINE
  5
1BC
330
1F
100
AcDbEntity
  8
0 (1) (1)
  6
K5LT32769
 62
     5
420
      255
370
    60
100
AcDbLine
 10
-18.5
 20
-25.00000076293944
 30
0.0
 11
-18.5
 21
-25.79999999999998
 31
0.0
  0
LINE
  5
1BD
330
1F
100
AcDbEntity
  8
0 (1) (1)
  6
K5LT32769
 62
     5
420
      255
370
    60
100
AcDbLine
 10
-18.5
 20
-25.79999999999998
 30
0.0
 11
-20.0
 21
-25.79999999999998
 31
0.0
  0
LINE
  5
1BE
330
1F
100
AcDbEntity
  8
0 (1) (1)
  6
K5LT32769
 62
     5
420
      255
370
    60
100
AcDbLine
 10
-11.46421222686783
 20
-30.05000076293943
 30
0.0
 11
-13.7
 21
-30.05000076293943
 31
0.0
  0
LINE
  5
1BF
330
1F
100
AcDbEntity
  8
0 (1) (1)
  6
K5LT32769
 62
     5
420
      255
370
    60
100
AcDbLine
 10
7.000000000000002
 20
-20.00000076293943
 30
0.0
 11
7.500000000000002
 21
-20.86602616672387
 31
0.0
  0
LINE
  5
1C0
330
1F
100
AcDbEntity
  8
0 (1) (1)
  6
K5LT32769
 62
     5
420
      255
370
    60
100
AcDbLine
 10
7.500000000000002
 20
-20.86602616672388
 30
0.0
 11
7.499999999999995
 21
-26.08578805923459
 31
0.0
  0
LINE
  5
1C1
330
1F
100
AcDbEntity
  8
0 (1) (1)
  6
K5LT32769
 62
     5
420
      255
370
    60
100
AcDbLine
 10
14.0
 20
-25.00000076293944
 30
0.0
 11
18.5
 21
-25.00000076293944
 31
0.0
  0
LINE
  5
1C2
330
1F
100
AcDbEntity
  8
0 (1) (1)
  6
K5LT32769
 62
     5
420
      255
370
    60
100
AcDbLine
 10
18.5
 20
-25.00000076293944
 30
0.0
 11
18.5
 21
-25.79999999999999
 31
0.0
  0
LINE
  5
1C3
330
1F
100
AcDbEntity
  8
0 (1) (1)
  6
K5LT32769
 62
     5
420
      255
370
    60
100
AcDbLine
 10
18.5
 20
-25.79999999999999
 30
0.0
 11
20.0
 21
-25.79999999999999
 31
0.0
  0
LINE
  5
1C4
330
1F
100
AcDbEntity
  8
0 (1) (1)
  6
K5LT32768
 62
     5
420
      255
370
    60
100
AcDbLine
 10
11.46421337127686
 20
-30.0500019073486
 30
0.0
 11
7.499999999999996
 21
-26.0857880592346
 31
0.0
  0
LINE
  5
1C5
330
1F
100
AcDbEntity
  8
0 (1) (1)
  6
K5LT32769
 62
     5
420
      255
370
    60
100
AcDbLine
 10
13.99999999999999
 20
-29.75000076293944
 30
0.0
 11
14.0
 21
-25.00000076293944
 31
0.0
  0
ARC
  5
1C6
330
1F
100
AcDbEntity
  8
0 (1) (1)
  6
K5LT32769
 62
     5
420
      255
370
    60
100
AcDbCircle
 10
13.7
 20
-29.75000076293944
 30
0.0
 40
0.2999999999999972
100
AcDbArc
 50
270.0
 51
0.0
  0
LINE
  5
1C7
330
1F
100
AcDbEntity
  8
0 (1) (1)
  6
K5LT32769
 62
     5
420
      255
370
    60
100
AcDbLine
 10
11.46421222686783
 20
-30.05000076293943
 30
0.0
 11
13.7
 21
-30.05000076293943
 31
0.0
  0
ARC
  5
1C8
330
1F
100
AcDbEntity
  8
0 (1) (1)
  6
K5LT32769
 62
     5
420
      255
370
    60
100
AcDbCircle
 10
5.175361441783254
 20
-21.86162303871531
 30
0.0
 40
0.5
100
AcDbArc
 50
160.2159122910447
 51
245.0000033144204
  0
LINE
  5
1C9
330
1F
100
AcDbEntity
  8
0 (1) (1)
  6
K5LT32769
 62
     5
420
      255
370
    60
100
AcDbLine
 10
4.964052337126747
 20
-22.31477694445734
 30
0.0
 11
5.500000000000002
 21
-22.56469340628072
 31
0.0
  0
LINE
  5
1CA
330
1F
100
AcDbEntity
  8
0 (1) (1)
  6
K5LT32769
 62
     5
420
      255
370
    60
100
AcDbLine
 10
2.314775227843599
 20
-24.96405405374049
 30
0.0
 11
2.564691689666988
 21
-25.50000171661375
 31
0.0
  0
ARC
  5
1CB
330
1F
100
AcDbEntity
  8
0 (1) (1)
  6
K5LT32769
 62
     5
420
      255
370
    60
100
AcDbCircle
 10
1.861621322101572
 20
-25.17536315839699
 30
0.0
 40
0.5000000000000002
100
AcDbArc
 50
24.99999668558048
 51
109.7840877089552
  0
ARC
  5
1CC
330
1F
100
AcDbEntity
  8
0 (1) (1)
  6
K5LT32769
 62
     5
420
      255
370
    60
100
AcDbCircle
 10
0.0000000000000024
 20
-20.00000171661374
 30
0.0
 40
4.999999999999999
100
AcDbArc
 50
250.2159122910448
 51
289.7840877089553
  0
ARC
  5
1CD
330
1F
100
AcDbEntity
  8
0 (1) (1)
  6
K5LT32769
 62
     5
420
      255
370
    60
100
AcDbCircle
 10
-1.861621322101568
 20
-25.17536315839699
 30
0.0
 40
0.5
100
AcDbArc
 50
70.21591229104489
 51
155.0000033144195
  0
LINE
  5
1CE
330
1F
100
AcDbEntity
  8
0 (1) (1)
  6
K5LT32769
 62
     5
420
      255
370
    60
100
AcDbLine
 10
-2.314775227843595
 20
-24.96405405374049
 30
0.0
 11
-2.564691689666984
 21
-25.50000171661374
 31
0.0
  0
LINE
  5
1CF
330
1F
100
AcDbEntity
  8
0 (1) (1)
  6
K5LT32769
 62
     5
420
      255
370
    60
100
AcDbLine
 10
-4.964052337126743
 20
-22.31477694445734
 30
0.0
 11
-5.499999999999998
 21
-22.56469340628072
 31
0.0
  0
ARC
  5
1D0
330
1F
100
AcDbEntity
  8
0 (1) (1)
  6
K5LT32769
 62
     5
420
      255
370
    60
100
AcDbCircle
 10
-5.175361441783251
 20
-21.86162303871531
 30
0.0
 40
0.5000000000000001
100
AcDbArc
 50
294.9999966855798
 51
19.7840877089553
  0
LINE
  5
1D1
330
1F
100
AcDbEntity
  8
0 (1) (1)
  6
K5LT32770
 62
     5
420
      255
370
    60
100
AcDbLine
 10
-19.0
 20
-34.00000152587886
 30
0.0
 11
-20.0
 21
-34.00000152587886
 31
0.0
  0
LINE
  5
1D2
330
1F
100
AcDbEntity
  8
0 (1) (1)
  6
K5LT32770
 62
     5
420
      255
370
    60
100
AcDbLine
 10
19.00000190734865
 20
-34.00000152587886
 30
0.0
 11
20.00000190734865
 21
-34.00000152587886
 31
0.0
  0
LINE
  5
1D3
330
1F
100
AcDbEntity
  8
0 (1) (1)
  6
K5LT32768
 62
     5
420
      255
370
    60
100
AcDbLine
 10
20.00000190734865
 20
-25.80000190734862
 30
0.0
 11
20.00000190734865
 21
-34.00000152587886
 31
0.0
  0
LINE
  5
1D4
330
1F
100
AcDbEntity
  8
0 (1) (1)
  6
K5LT32770
 62
     5
420
      255
370
    60
100
AcDbLine
 10
5.671572437626909
 20
-27.50000152587886
 30
0.0
 11
-5.671572437626906
 21
-27.50000152587886
 31
0.0
  0
ARC
  5
1D5
330
1F
100
AcDbEntity
  8
0 (1) (1)
  6
K5LT32770
 62
     5
420
      255
370
    60
100
AcDbCircle
 10
-5.671572437626906
 20
-28.50000152587886
 30
0.0
 40
1.0
100
AcDbArc
 50
90.0
 51
135.0000000000001
  0
ARC
  5
1D6
330
1F
100
AcDbEntity
  8
0 (1) (1)
  6
K5LT32770
 62
     5
420
      255
370
    60
100
AcDbCircle
 10
5.671572437626909
 20
-28.50000152587886
 30
0.0
 40
1.0
100
AcDbArc
 50
44.99999999999989
 51
90.0
  0
LINE
  5
1D7
330
1F
100
AcDbEntity
  8
0 (1) (1)
  6
K5LT32768
 62
     5
420
      255
370
    60
100
AcDbLine
 10
-11.46421337127686
 20
-49.95000114440911
 30
0.0
 11
-7.499999999999998
 21
-53.91421499252313
 31
0.0
  0
LINE
  5
1D8
330
1F
100
AcDbEntity
  8
0 (1) (1)
  6
K5LT32768
 62
     5
420
      255
370
    60
100
AcDbLine
 10
-7.499999999999997
 20
-66.08578767776483
 30
0.0
 11
-11.46421337127686
 21
-70.05000152587883
 31
0.0
  0
LINE
  5
1D9
330
1F
100
AcDbEntity
  8
0 (1) (1)
  6
K5LT32768
 62
     5
420
      255
370
    60
100
AcDbLine
 10
-20.0
 20
-65.80000152587884
 30
0.0
 11
-20.0
 21
-77.00000133514396
 31
0.0
  0
LINE
  5
1DA
330
1F
100
AcDbEntity
  8
0 (1) (1)
  6
K5LT32768
 62
     5
420
      255
370
    60
100
AcDbLine
 10
-16.99999999999999
 20
-80.00000133514396
 30
0.0
 11
-5.800000190734853
 21
-80.00000133514396
 31
0.0
  0
LINE
  5
1DB
330
1F
100
AcDbEntity
  8
0 (1) (1)
  6
K5LT32768
 62
     5
420
      255
370
    60
100
AcDbLine
 10
-17.24999999999999
 20
-74.50000120971976
 30
0.0
 11
-18.49999999999999
 21
-74.50000120971976
 31
0.0
  0
LINE
  5
1DC
330
1F
100
AcDbEntity
  8
0 (1) (1)
  6
K5LT32768
 62
     5
420
      255
370
    60
100
AcDbLine
 10
-18.49999999999999
 20
-74.50000120971976
 30
0.0
 11
-18.49999999999999
 21
-69.50000133514396
 31
0.0
  0
LINE
  5
1DD
330
1F
100
AcDbEntity
  8
0 (1) (1)
  6
K5LT32768
 62
     5
420
      255
370
    60
100
AcDbLine
 10
-15.49999999999999
 20
-69.50000133514396
 30
0.0
 11
-15.49999999999999
 21
-70.75000108429549
 31
0.0
  0
LINE
  5
1DE
330
1F
100
AcDbEntity
  8
0 (1) (1)
  6
K5LT32768
 62
     5
420
      255
370
    60
100
AcDbLine
 10
-5.499999999999998
 20
-54.50000133514398
 30
0.0
 11
-2.564691689666984
 21
-54.50000133514398
 31
0.0
  0
LINE
  5
1DF
330
1F
100
AcDbEntity
  8
0 (1) (1)
  6
K5LT32768
 62
     5
420
      255
370
    60
100
AcDbLine
 10
2.564691689666988
 20
-54.50000133514398
 30
0.0
 11
5.500000000000002
 21
-54.50000133514398
 31
0.0
  0
LINE
  5
1E0
330
1F
100
AcDbEntity
  8
0 (1) (1)
  6
K5LT32768
 62
     5
420
      255
370
    60
100
AcDbLine
 10
5.500000000000002
 20
-54.50000133514398
 30
0.0
 11
5.500000000000002
 21
-57.43530964547699
 31
0.0
  0
LINE
  5
1E1
330
1F
100
AcDbEntity
  8
0 (1) (1)
  6
K5LT32768
 62
     5
420
      255
370
    60
100
AcDbLine
 10
5.500000000000003
 20
-62.56469302481096
 30
0.0
 11
5.500000000000003
 21
-65.50000133514396
 31
0.0
  0
LINE
  5
1E2
330
1F
100
AcDbEntity
  8
0 (1) (1)
  6
K5LT32768
 62
     5
420
      255
370
    60
100
AcDbLine
 10
5.500000000000003
 20
-65.50000133514398
 30
0.0
 11
2.564691689666989
 21
-65.50000133514398
 31
0.0
  0
LINE
  5
1E3
330
1F
100
AcDbEntity
  8
0 (1) (1)
  6
K5LT32768
 62
     5
420
      255
370
    60
100
AcDbLine
 10
-2.564691689666983
 20
-65.50000133514398
 30
0.0
 11
-5.499999999999996
 21
-65.50000133514398
 31
0.0
  0
LINE
  5
1E4
330
1F
100
AcDbEntity
  8
0 (1) (1)
  6
K5LT32768
 62
     5
420
      255
370
    60
100
AcDbLine
 10
-5.499999999999997
 20
-65.50000133514398
 30
0.0
 11
-5.499999999999997
 21
-62.56469302481096
 31
0.0
  0
LINE
  5
1E5
330
1F
100
AcDbEntity
  8
0 (1) (1)
  6
K5LT32768
 62
     5
420
      255
370
    60
100
AcDbLine
 10
-5.499999999999998
 20
-57.43530964547699
 30
0.0
 11
-5.499999999999998
 21
-54.50000133514398
 31
0.0
  0
ARC
  5
1E6
330
1F
100
AcDbEntity
  8
0 (1) (1)
  6
K5LT32768
 62
     5
420
      255
370
    60
100
AcDbCircle
 10
-16.99999999999999
 20
-77.00000133514396
 30
0.0
 40
3.0
100
AcDbArc
 50
180.0
 51
270.0
  0
LINE
  5
1E7
330
1F
100
AcDbEntity
  8
0 (1) (1)
  6
K5LT32768
 62
     5
420
      255
370
    60
100
AcDbLine
 10
-20.0
 20
-54.2000011444091
 30
0.0
 11
-20.0
 21
-46.00000152587886
 31
0.0
  0
LINE
  5
1E8
330
1F
100
AcDbEntity
  8
0 (1) (1)
  6
K5LT32768
 62
     5
420
      255
370
    60
100
AcDbLine
 10
20.0
 20
-65.80000152587884
 30
0.0
 11
20.0
 21
-77.00000133514396
 31
0.0
  0
ARC
  5
1E9
330
1F
100
AcDbEntity
  8
0 (1) (1)
  6
K5LT32768
 62
     5
420
      255
370
    60
100
AcDbCircle
 10
17.0
 20
-77.00000133514396
 30
0.0
 40
3.0
100
AcDbArc
 50
270.0
 51
0.0
  0
LINE
  5
1EA
330
1F
100
AcDbEntity
  8
0 (1) (1)
  6
K5LT32768
 62
     5
420
      255
370
    60
100
AcDbLine
 10
17.0
 20
-80.00000133514396
 30
0.0
 11
5.800000190734874
 21
-80.00000133514396
 31
0.0
  0
LINE
  5
1EB
330
1F
100
AcDbEntity
  8
0 (1) (1)
  6
K5LT32769
 62
     5
420
      255
370
    60
100
AcDbLine
 10
-13.99999999999999
 20
-69.75000228881828
 30
0.0
 11
-14.0
 21
-65.0000022888183
 31
0.0
  0
ARC
  5
1EC
330
1F
100
AcDbEntity
  8
0 (1) (1)
  6
K5LT32769
 62
     5
420
      255
370
    60
100
AcDbCircle
 10
-13.7
 20
-69.75000228881828
 30
0.0
 40
0.2999999999999972
100
AcDbArc
 50
180.0
 51
270.0
  0
LINE
  5
1ED
330
1F
100
AcDbEntity
  8
0 (1) (1)
  6
K5LT32769
 62
     5
420
      255
370
    60
100
AcDbLine
 10
-13.99999999999999
 20
-50.25000228881828
 30
0.0
 11
-14.0
 21
-55.00000228881828
 31
0.0
  0
ARC
  5
1EE
330
1F
100
AcDbEntity
  8
0 (1) (1)
  6
K5LT32769
 62
     5
420
      255
370
    60
100
AcDbCircle
 10
-13.7
 20
-50.25000228881828
 30
0.0
 40
0.2999999999999972
100
AcDbArc
 50
90.0
 51
180.0
  0
LINE
  5
1EF
330
1F
100
AcDbEntity
  8
0 (1) (1)
  6
K5LT32769
 62
     5
420
      255
370
    60
100
AcDbLine
 10
-6.999999999999998
 20
-60.00000228881828
 30
0.0
 11
-7.499999999999998
 21
-59.13397688503386
 31
0.0
  0
LINE
  5
1F0
330
1F
100
AcDbEntity
  8
0 (1) (1)
  6
K5LT32769
 62
     5
420
      255
370
    60
100
AcDbLine
 10
-6.999999999999998
 20
-60.00000228881828
 30
0.0
 11
-7.499999999999998
 21
-60.86602769260274
 31
0.0
  0
LINE
  5
1F1
330
1F
100
AcDbEntity
  8
0 (1) (1)
  6
K5LT32769
 62
     5
420
      255
370
    60
100
AcDbLine
 10
-7.499999999999998
 20
-60.86602769260274
 30
0.0
 11
-7.499999999999997
 21
-66.08578767776483
 31
0.0
  0
LINE
  5
1F2
330
1F
100
AcDbEntity
  8
0 (1) (1)
  6
K5LT32769
 62
     5
420
      255
370
    60
100
AcDbLine
 10
-7.499999999999998
 20
-59.13397688503383
 30
0.0
 11
-7.499999999999991
 21
-53.91421499252313
 31
0.0
  0
LINE
  5
1F3
330
1F
100
AcDbEntity
  8
0 (1) (1)
  6
K5LT32769
 62
     5
420
      255
370
    60
100
AcDbLine
 10
-11.46421337127686
 20
-70.05000228881829
 30
0.0
 11
-13.7
 21
-70.05000228881829
 31
0.0
  0
LINE
  5
1F4
330
1F
100
AcDbEntity
  8
0 (1) (1)
  6
K5LT32769
 62
     5
420
      255
370
    60
100
AcDbLine
 10
-14.0
 20
-65.0000022888183
 30
0.0
 11
-18.5
 21
-65.0000022888183
 31
0.0
  0
LINE
  5
1F5
330
1F
100
AcDbEntity
  8
0 (1) (1)
  6
K5LT32769
 62
     5
420
      255
370
    60
100
AcDbLine
 10
-18.5
 20
-65.0000022888183
 30
0.0
 11
-18.5
 21
-65.80000152587884
 31
0.0
  0
LINE
  5
1F6
330
1F
100
AcDbEntity
  8
0 (1) (1)
  6
K5LT32769
 62
     5
420
      255
370
    60
100
AcDbLine
 10
-18.5
 20
-65.80000152587884
 30
0.0
 11
-20.0
 21
-65.80000152587884
 31
0.0
  0
LINE
  5
1F7
330
1F
100
AcDbEntity
  8
0 (1) (1)
  6
K5LT32769
 62
     5
420
      255
370
    60
100
AcDbLine
 10
-14.0
 20
-55.00000228881828
 30
0.0
 11
-18.5
 21
-55.00000228881828
 31
0.0
  0
LINE
  5
1F8
330
1F
100
AcDbEntity
  8
0 (1) (1)
  6
K5LT32769
 62
     5
420
      255
370
    60
100
AcDbLine
 10
-18.5
 20
-55.00000228881828
 30
0.0
 11
-18.5
 21
-54.20000305175773
 31
0.0
  0
LINE
  5
1F9
330
1F
100
AcDbEntity
  8
0 (1) (1)
  6
K5LT32769
 62
     5
420
      255
370
    60
100
AcDbLine
 10
-18.5
 20
-54.20000305175773
 30
0.0
 11
-20.0
 21
-54.20000305175773
 31
0.0
  0
LINE
  5
1FA
330
1F
100
AcDbEntity
  8
0 (1) (1)
  6
K5LT32769
 62
     5
420
      255
370
    60
100
AcDbLine
 10
-11.46421222686783
 20
-49.95000228881828
 30
0.0
 11
-13.7
 21
-49.95000228881828
 31
0.0
  0
LINE
  5
1FB
330
1F
100
AcDbEntity
  8
0 (1) (1)
  6
K5LT32769
 62
     5
420
      255
370
    60
100
AcDbLine
 10
7.000000000000002
 20
-60.00000228881828
 30
0.0
 11
7.500000000000002
 21
-59.13397688503385
 31
0.0
  0
LINE
  5
1FC
330
1F
100
AcDbEntity
  8
0 (1) (1)
  6
K5LT32769
 62
     5
420
      255
370
    60
100
AcDbLine
 10
7.000000000000002
 20
-60.00000228881828
 30
0.0
 11
7.500000000000002
 21
-60.86602769260273
 31
0.0
  0
LINE
  5
1FD
330
1F
100
AcDbEntity
  8
0 (1) (1)
  6
K5LT32769
 62
     5
420
      255
370
    60
100
AcDbLine
 10
7.500000000000002
 20
-60.86602769260274
 30
0.0
 11
7.500000000000003
 21
-66.08578767776483
 31
0.0
  0
LINE
  5
1FE
330
1F
100
AcDbEntity
  8
0 (1) (1)
  6
K5LT32769
 62
     5
420
      255
370
    60
100
AcDbLine
 10
7.500000000000002
 20
-59.13397688503383
 30
0.0
 11
7.499999999999995
 21
-53.91421499252313
 31
0.0
  0
LINE
  5
1FF
330
1F
100
AcDbEntity
  8
0 (1) (1)
  6
K5LT32769
 62
     5
420
      255
370
    60
100
AcDbLine
 10
14.0
 20
-65.00000228881828
 30
0.0
 11
18.5
 21
-65.00000228881828
 31
0.0
  0
LINE
  5
200
330
1F
100
AcDbEntity
  8
0 (1) (1)
  6
K5LT32769
 62
     5
420
      255
370
    60
100
AcDbLine
 10
18.5
 20
-65.00000228881828
 30
0.0
 11
18.5
 21
-65.80000152587884
 31
0.0
  0
LINE
  5
201
330
1F
100
AcDbEntity
  8
0 (1) (1)
  6
K5LT32769
 62
     5
420
      255
370
    60
100
AcDbLine
 10
18.5
 20
-65.80000152587884
 30
0.0
 11
20.0
 21
-65.80000152587884
 31
0.0
  0
LINE
  5
202
330
1F
100
AcDbEntity
  8
0 (1) (1)
  6
K5LT32769
 62
     5
420
      255
370
    60
100
AcDbLine
 10
14.0
 20
-55.00000228881828
 30
0.0
 11
18.5
 21
-55.00000228881828
 31
0.0
  0
LINE
  5
203
330
1F
100
AcDbEntity
  8
0 (1) (1)
  6
K5LT32769
 62
     5
420
      255
370
    60
100
AcDbLine
 10
18.5
 20
-55.00000228881828
 30
0.0
 11
18.5
 21
-54.20000305175773
 31
0.0
  0
LINE
  5
204
330
1F
100
AcDbEntity
  8
0 (1) (1)
  6
K5LT32769
 62
     5
420
      255
370
    60
100
AcDbLine
 10
18.5
 20
-54.20000305175773
 30
0.0
 11
20.0
 21
-54.20000305175773
 31
0.0
  0
LINE
  5
205
330
1F
100
AcDbEntity
  8
0 (1) (1)
  6
K5LT32768
 62
     5
420
      255
370
    60
100
AcDbLine
 10
11.46421337127686
 20
-49.95000114440911
 30
0.0
 11
7.499999999999996
 21
-53.91421499252311
 31
0.0
  0
LINE
  5
206
330
1F
100
AcDbEntity
  8
0 (1) (1)
  6
K5LT32768
 62
     5
420
      255
370
    60
100
AcDbLine
 10
7.500000000000003
 20
-66.08578767776483
 30
0.0
 11
11.46421337127686
 21
-70.05000152587883
 31
0.0
  0
LINE
  5
207
330
1F
100
AcDbEntity
  8
0 (1) (1)
  6
K5LT32769
 62
     5
420
      255
370
    60
100
AcDbLine
 10
14.0
 20
-69.75000228881828
 30
0.0
 11
14.0
 21
-65.0000022888183
 31
0.0
  0
ARC
  5
208
330
1F
100
AcDbEntity
  8
0 (1) (1)
  6
K5LT32769
 62
     5
420
      255
370
    60
100
AcDbCircle
 10
13.7
 20
-69.75000228881828
 30
0.0
 40
0.2999999999999972
100
AcDbArc
 50
270.0
 51
0.0
  0
LINE
  5
209
330
1F
100
AcDbEntity
  8
0 (1) (1)
  6
K5LT32769
 62
     5
420
      255
370
    60
100
AcDbLine
 10
13.99999999999999
 20
-50.25000228881828
 30
0.0
 11
14.0
 21
-55.00000228881828
 31
0.0
  0
ARC
  5
20A
330
1F
100
AcDbEntity
  8
0 (1) (1)
  6
K5LT32769
 62
     5
420
      255
370
    60
100
AcDbCircle
 10
13.7
 20
-50.25000228881828
 30
0.0
 40
0.2999999999999972
100
AcDbArc
 50
0.0
 51
90.0
  0
LINE
  5
20B
330
1F
100
AcDbEntity
  8
0 (1) (1)
  6
K5LT32769
 62
     5
420
      255
370
    60
100
AcDbLine
 10
11.46421337127686
 20
-70.05000228881829
 30
0.0
 11
13.69999999999999
 21
-70.05000228881829
 31
0.0
  0
LINE
  5
20C
330
1F
100
AcDbEntity
  8
0 (1) (1)
  6
K5LT32769
 62
     5
420
      255
370
    60
100
AcDbLine
 10
11.46421222686783
 20
-49.95000228881828
 30
0.0
 11
13.7
 21
-49.95000228881828
 31
0.0
  0
LINE
  5
20D
330
1F
100
AcDbEntity
  8
0 (1) (1)
  6
K5LT32769
 62
     5
420
      255
370
    60
100
AcDbLine
 10
0.0000009536743264
 20
-67.00000133514398
 30
0.0
 11
-0.8660244501101146
 21
-67.50000133514398
 31
0.0
  0
LINE
  5
20E
330
1F
100
AcDbEntity
  8
0 (1) (1)
  6
K5LT32769
 62
     5
420
      255
370
    60
100
AcDbLine
 10
0.0000009536743264
 20
-67.00000133514398
 30
0.0
 11
0.8660263574587674
 21
-67.50000133514398
 31
0.0
  0
LINE
  5
20F
330
1F
100
AcDbEntity
  8
0 (1) (1)
  6
K5LT32769
 62
     5
420
      255
370
    60
100
AcDbLine
 10
0.8660263574587674
 20
-67.50000133514398
 30
0.0
 11
6.085786342620852
 21
-67.50000133514398
 31
0.0
  0
LINE
  5
210
330
1F
100
AcDbEntity
  8
0 (1) (1)
  6
K5LT32769
 62
     5
420
      255
370
    60
100
AcDbLine
 10
-0.8660244501101431
 20
-67.50000133514398
 30
0.0
 11
-6.085786342620847
 21
-67.50000133514396
 31
0.0
  0
LINE
  5
211
330
1F
100
AcDbEntity
  8
0 (1) (1)
  6
K5LT32769
 62
     5
420
      255
370
    60
100
AcDbLine
 10
5.000000953674327
 20
-74.00000133514396
 30
0.0
 11
5.000000953674328
 21
-78.50000133514396
 31
0.0
  0
LINE
  5
212
330
1F
100
AcDbEntity
  8
0 (1) (1)
  6
K5LT32769
 62
     5
420
      255
370
    60
100
AcDbLine
 10
5.000000953674328
 20
-78.50000133514396
 30
0.0
 11
5.800000190734874
 21
-78.50000133514396
 31
0.0
  0
LINE
  5
213
330
1F
100
AcDbEntity
  8
0 (1) (1)
  6
K5LT32769
 62
     5
420
      255
370
    60
100
AcDbLine
 10
5.800000190734874
 20
-78.50000133514396
 30
0.0
 11
5.800000190734874
 21
-80.00000133514396
 31
0.0
  0
LINE
  5
214
330
1F
100
AcDbEntity
  8
0 (1) (1)
  6
K5LT32769
 62
     5
420
      255
370
    60
100
AcDbLine
 10
-4.999999046325688
 20
-74.00000133514396
 30
0.0
 11
-4.999999046325687
 21
-78.50000133514396
 31
0.0
  0
LINE
  5
215
330
1F
100
AcDbEntity
  8
0 (1) (1)
  6
K5LT32769
 62
     5
420
      255
370
    60
100
AcDbLine
 10
-4.999999046325687
 20
-78.50000133514396
 30
0.0
 11
-5.799998283386234
 21
-78.50000133514396
 31
0.0
  0
LINE
  5
216
330
1F
100
AcDbEntity
  8
0 (1) (1)
  6
K5LT32769
 62
     5
420
      255
370
    60
100
AcDbLine
 10
-5.799998283386241
 20
-78.50000133514396
 30
0.0
 11
-5.799998283386241
 21
-80.00000133514396
 31
0.0
  0
LINE
  5
217
330
1F
100
AcDbEntity
  8
0 (1) (1)
  6
K5LT32768
 62
     5
420
      255
370
    60
100
AcDbLine
 10
-10.05000019073486
 20
-71.46421470642082
 30
0.0
 11
-6.085786342620853
 21
-67.50000133514396
 31
0.0
  0
LINE
  5
218
330
1F
100
AcDbEntity
  8
0 (1) (1)
  6
K5LT32768
 62
     5
420
      255
370
    60
100
AcDbLine
 10
6.085786342620852
 20
-67.50000133514398
 30
0.0
 11
10.05000019073487
 21
-71.46421470642082
 31
0.0
  0
LINE
  5
219
330
1F
100
AcDbEntity
  8
0 (1) (1)
  6
K5LT32769
 62
     5
420
      255
370
    60
100
AcDbLine
 10
9.750000953674327
 20
-74.00000133514396
 30
0.0
 11
5.000000953674328
 21
-74.00000133514396
 31
0.0
  0
ARC
  5
21A
330
1F
100
AcDbEntity
  8
0 (1) (1)
  6
K5LT32769
 62
     5
420
      255
370
    60
100
AcDbCircle
 10
9.750000953674327
 20
-73.70000133514398
 30
0.0
 40
0.2999999999999972
100
AcDbArc
 50
270.0
 51
0.0
  0
LINE
  5
21B
330
1F
100
AcDbEntity
  8
0 (1) (1)
  6
K5LT32769
 62
     5
420
      255
370
    60
100
AcDbLine
 10
-9.749999046325694
 20
-74.00000133514396
 30
0.0
 11
-4.999999046325701
 21
-74.00000133514396
 31
0.0
  0
ARC
  5
21C
330
1F
100
AcDbEntity
  8
0 (1) (1)
  6
K5LT32769
 62
     5
420
      255
370
    60
100
AcDbCircle
 10
-9.749999046325694
 20
-73.70000133514398
 30
0.0
 40
0.2999999999999972
100
AcDbArc
 50
180.0
 51
270.0
  0
LINE
  5
21D
330
1F
100
AcDbEntity
  8
0 (1) (1)
  6
K5LT32769
 62
     5
420
      255
370
    60
100
AcDbLine
 10
10.05000095367432
 20
-71.46421470642082
 30
0.0
 11
10.05000095367432
 21
-73.70000133514395
 31
0.0
  0
LINE
  5
21E
330
1F
100
AcDbEntity
  8
0 (1) (1)
  6
K5LT32769
 62
     5
420
      255
370
    60
100
AcDbLine
 10
-10.04999904632568
 20
-71.46421356201182
 30
0.0
 11
-10.04999904632568
 21
-73.70000133514398
 31
0.0
  0
LINE
  5
21F
330
1F
100
AcDbEntity
  8
0 (1) (1)
  6
K5LT32769
 62
     5
420
      255
370
    60
100
AcDbLine
 10
-2.314775227843594
 20
-64.96405367227072
 30
0.0
 11
-2.564691689666983
 21
-65.50000133514398
 31
0.0
  0
ARC
  5
220
330
1F
100
AcDbEntity
  8
0 (1) (1)
  6
K5LT32769
 62
     5
420
      255
370
    60
100
AcDbCircle
 10
-1.861621322101567
 20
-65.17536277692723
 30
0.0
 40
0.5000000000000001
100
AcDbArc
 50
70.21591229104507
 51
155.0000033144203
  0
ARC
  5
221
330
1F
100
AcDbEntity
  8
0 (1) (1)
  6
K5LT32769
 62
     5
420
      255
370
    60
100
AcDbCircle
 10
0.0000000000000024
 20
-60.00000133514398
 30
0.0
 40
4.999999999999999
100
AcDbArc
 50
250.2159122910447
 51
289.7840877089553
  0
ARC
  5
222
330
1F
100
AcDbEntity
  8
0 (1) (1)
  6
K5LT32769
 62
     5
420
      255
370
    60
100
AcDbCircle
 10
1.861621322101573
 20
-65.17536277692723
 30
0.0
 40
0.5000000000000001
100
AcDbArc
 50
24.99999668557976
 51
109.7840877089551
  0
LINE
  5
223
330
1F
100
AcDbEntity
  8
0 (1) (1)
  6
K5LT32769
 62
     5
420
      255
370
    60
100
AcDbLine
 10
2.3147752278436
 20
-64.96405367227072
 30
0.0
 11
2.564691689666989
 21
-65.50000133514398
 31
0.0
  0
LINE
  5
224
330
1F
100
AcDbEntity
  8
0 (1) (1)
  6
K5LT32769
 62
     5
420
      255
370
    60
100
AcDbLine
 10
4.964052337126748
 20
-62.31477656298756
 30
0.0
 11
5.500000000000003
 21
-62.56469302481096
 31
0.0
  0
ARC
  5
225
330
1F
100
AcDbEntity
  8
0 (1) (1)
  6
K5LT32769
 62
     5
420
      255
370
    60
100
AcDbCircle
 10
5.175361441783255
 20
-61.86162265724555
 30
0.0
 40
0.5000000000000001
100
AcDbArc
 50
160.2159122910447
 51
245.0000033144199
  0
ARC
  5
226
330
1F
100
AcDbEntity
  8
0 (1) (1)
  6
K5LT32769
 62
     5
420
      255
370
    60
100
AcDbCircle
 10
0.0000000000000024
 20
-60.00000133514398
 30
0.0
 40
4.999999999999999
100
AcDbArc
 50
340.2159122910447
 51
19.78408770895532
  0
ARC
  5
227
330
1F
100
AcDbEntity
  8
0 (1) (1)
  6
K5LT32769
 62
     5
420
      255
370
    60
100
AcDbCircle
 10
5.175361441783254
 20
-58.13838001304241
 30
0.0
 40
0.5
100
AcDbArc
 50
114.9999966855797
 51
199.7840877089553
  0
LINE
  5
228
330
1F
100
AcDbEntity
  8
0 (1) (1)
  6
K5LT32769
 62
     5
420
      255
370
    60
100
AcDbLine
 10
4.964052337126747
 20
-57.68522610730038
 30
0.0
 11
5.500000000000002
 21
-57.43530964547699
 31
0.0
  0
LINE
  5
229
330
1F
100
AcDbEntity
  8
0 (1) (1)
  6
K5LT32769
 62
     5
420
      255
370
    60
100
AcDbLine
 10
2.314775227843599
 20
-55.03594899801723
 30
0.0
 11
2.564691689666988
 21
-54.50000133514396
 31
0.0
  0
ARC
  5
22A
330
1F
100
AcDbEntity
  8
0 (1) (1)
  6
K5LT32769
 62
     5
420
      255
370
    60
100
AcDbCircle
 10
1.861621322101572
 20
-54.82463989336073
 30
0.0
 40
0.5000000000000002
100
AcDbArc
 50
250.2159122910451
 51
335.0000033144203
  0
ARC
  5
22B
330
1F
100
AcDbEntity
  8
0 (1) (1)
  6
K5LT32769
 62
     5
420
      255
370
    60
100
AcDbCircle
 10
0.0000000000000024
 20
-60.00000133514398
 30
0.0
 40
4.999999999999999
100
AcDbArc
 50
70.21591229104469
 51
109.7840877089553
  0
ARC
  5
22C
330
1F
100
AcDbEntity
  8
0 (1) (1)
  6
K5LT32769
 62
     5
420
      255
370
    60
100
AcDbCircle
 10
-1.861621322101568
 20
-54.82463989336073
 30
0.0
 40
0.5
100
AcDbArc
 50
204.9999966855797
 51
289.7840877089549
  0
LINE
  5
22D
330
1F
100
AcDbEntity
  8
0 (1) (1)
  6
K5LT32769
 62
     5
420
      255
370
    60
100
AcDbLine
 10
-2.314775227843595
 20
-55.03594899801723
 30
0.0
 11
-2.564691689666984
 21
-54.50000133514398
 31
0.0
  0
LINE
  5
22E
330
1F
100
AcDbEntity
  8
0 (1) (1)
  6
K5LT32769
 62
     5
420
      255
370
    60
100
AcDbLine
 10
-4.964052337126743
 20
-57.68522610730038
 30
0.0
 11
-5.499999999999998
 21
-57.43530964547699
 31
0.0
  0
ARC
  5
22F
330
1F
100
AcDbEntity
  8
0 (1) (1)
  6
K5LT32769
 62
     5
420
      255
370
    60
100
AcDbCircle
 10
-5.175361441783251
 20
-58.13838001304241
 30
0.0
 40
0.5000000000000001
100
AcDbArc
 50
340.2159122910447
 51
65.00000331442004
  0
ARC
  5
230
330
1F
100
AcDbEntity
  8
0 (1) (1)
  6
K5LT32769
 62
     5
420
      255
370
    60
100
AcDbCircle
 10
0.0000000000000024
 20
-60.00000133514398
 30
0.0
 40
4.999999999999999
100
AcDbArc
 50
160.2159122910447
 51
199.7840877089551
  0
ARC
  5
231
330
1F
100
AcDbEntity
  8
0 (1) (1)
  6
K5LT32769
 62
     5
420
      255
370
    60
100
AcDbCircle
 10
-5.17536144178325
 20
-61.86162265724555
 30
0.0
 40
0.5000000000000001
100
AcDbArc
 50
294.9999966855797
 51
19.7840877089553
  0
LINE
  5
232
330
1F
100
AcDbEntity
  8
0 (1) (1)
  6
K5LT32769
 62
     5
420
      255
370
    60
100
AcDbLine
 10
-4.964052337126742
 20
-62.31477656298756
 30
0.0
 11
-5.499999999999997
 21
-62.56469302481096
 31
0.0
  0
ARC
  5
233
330
1F
100
AcDbEntity
  8
0 (1) (1)
  6
K5LT32768
 62
     5
420
      255
370
    60
100
AcDbCircle
 10
-14.49999987457576
 20
-74.50000120971976
 30
0.0
 40
2.750000125424239
100
AcDbArc
 50
180.0
 51
270.0
  0
ARC
  5
234
330
1F
100
AcDbEntity
  8
0 (1) (1)
  6
K5LT32768
 62
     5
420
      255
370
    60
100
AcDbCircle
 10
-16.99999999999999
 20
-69.50000156204177
 30
0.0
 40
1.5
100
AcDbArc
 50
0.0
 51
180.0
  0
LINE
  5
235
330
1F
100
AcDbEntity
  8
0 (1) (1)
  6
K5LT32768
 62
     5
420
      255
370
    60
100
AcDbLine
 10
-14.49999987457576
 20
-77.25000133514396
 30
0.0
 11
-14.49999987457576
 21
-78.50000133514396
 31
0.0
  0
LINE
  5
236
330
1F
100
AcDbEntity
  8
0 (1) (1)
  6
K5LT32768
 62
     5
420
      255
370
    60
100
AcDbLine
 10
-14.49999987457576
 20
-78.50000133514396
 30
0.0
 11
-9.499999999999996
 21
-78.50000133514399
 31
0.0
  0
LINE
  5
237
330
1F
100
AcDbEntity
  8
0 (1) (1)
  6
K5LT32768
 62
     5
420
      255
370
    60
100
AcDbLine
 10
-9.49999999999999
 20
-75.50000133514399
 30
0.0
 11
-10.74999974915152
 21
-75.50000133514399
 31
0.0
  0
ARC
  5
238
330
1F
100
AcDbEntity
  8
0 (1) (1)
  6
K5LT32768
 62
     5
420
      255
370
    60
100
AcDbCircle
 10
-9.500000226897793
 20
-77.00000133514399
 30
0.0
 40
1.5
100
AcDbArc
 50
270.0
 51
90.0
  0
ARC
  5
239
330
1F
100
AcDbEntity
  8
0 (1) (1)
  6
K5LT32768
 62
     5
420
      255
370
    60
100
AcDbCircle
 10
-14.49999987457576
 20
-74.50000120971976
 30
0.0
 40
2.750000125424239
100
AcDbArc
 50
0.0
 51
90.0
  0
ARC
  5
23A
330
1F
100
AcDbEntity
  8
0 (1) (1)
  6
K5LT32768
 62
     5
420
      255
370
    60
100
AcDbCircle
 10
-14.49999999999999
 20
-70.75000108429549
 30
0.0
 40
1.0
100
AcDbArc
 50
180.0
 51
270.0
  0
ARC
  5
23B
330
1F
100
AcDbEntity
  8
0 (1) (1)
  6
K5LT32768
 62
     5
420
      255
370
    60
100
AcDbCircle
 10
-10.74999974915152
 20
-74.50000133514399
 30
0.0
 40
1.0
100
AcDbArc
 50
179.9999980836585
 51
270.0
  0
LINE
  5
23C
330
1F
100
AcDbEntity
  8
0 (1) (1)
  6
K5LT32768
 62
     5
420
      255
370
    60
100
AcDbLine
 10
17.25
 20
-74.50000120971976
 30
0.0
 11
18.5
 21
-74.50000120971976
 31
0.0
  0
LINE
  5
23D
330
1F
100
AcDbEntity
  8
0 (1) (1)
  6
K5LT32768
 62
     5
420
      255
370
    60
100
AcDbLine
 10
18.5
 20
-74.50000120971976
 30
0.0
 11
18.5
 21
-69.50000133514396
 31
0.0
  0
ARC
  5
23E
330
1F
100
AcDbEntity
  8
0 (1) (1)
  6
K5LT32768
 62
     5
420
      255
370
    60
100
AcDbCircle
 10
14.49999987457576
 20
-74.50000120971976
 30
0.0
 40
2.750000125424239
100
AcDbArc
 50
270.0
 51
0.0
  0
LINE
  5
23F
330
1F
100
AcDbEntity
  8
0 (1) (1)
  6
K5LT32768
 62
     5
420
      255
370
    60
100
AcDbLine
 10
14.49999987457578
 20
-77.25000133514396
 30
0.0
 11
14.49999987457578
 21
-78.50000133514396
 31
0.0
  0
ARC
  5
240
330
1F
100
AcDbEntity
  8
0 (1) (1)
  6
K5LT32768
 62
     5
420
      255
370
    60
100
AcDbCircle
 10
14.49999987457576
 20
-74.50000120971976
 30
0.0
 40
2.750000125424239
100
AcDbArc
 50
90.0
 51
180.0000019163409
  0
ARC
  5
241
330
1F
100
AcDbEntity
  8
0 (1) (1)
  6
K5LT32768
 62
     5
420
      255
370
    60
100
AcDbCircle
 10
14.5
 20
-70.75000108429549
 30
0.0
 40
1.0
100
AcDbArc
 50
270.0
 51
0.0
  0
ARC
  5
242
330
1F
100
AcDbEntity
  8
0 (1) (1)
  6
K5LT32768
 62
     5
420
      255
370
    60
100
AcDbCircle
 10
10.74999974915153
 20
-74.50000133514399
 30
0.0
 40
1.0
100
AcDbArc
 50
270.0
 51
0.0
  0
ARC
  5
243
330
1F
100
AcDbEntity
  8
0 (1) (1)
  6
K5LT32768
 62
     5
420
      255
370
    60
100
AcDbCircle
 10
17.0
 20
-69.50000156204177
 30
0.0
 40
1.5
100
AcDbArc
 50
0.0
 51
180.0
  0
LINE
  5
244
330
1F
100
AcDbEntity
  8
0 (1) (1)
  6
K5LT32768
 62
     5
420
      255
370
    60
100
AcDbLine
 10
14.49999987457578
 20
-78.50000133514396
 30
0.0
 11
9.500000000000025
 21
-78.50000133514399
 31
0.0
  0
LINE
  5
245
330
1F
100
AcDbEntity
  8
0 (1) (1)
  6
K5LT32768
 62
     5
420
      255
370
    60
100
AcDbLine
 10
9.50000000000001
 20
-75.50000133514399
 30
0.0
 11
10.74999974915153
 21
-75.50000133514399
 31
0.0
  0
ARC
  5
246
330
1F
100
AcDbEntity
  8
0 (1) (1)
  6
K5LT32768
 62
     5
420
      255
370
    60
100
AcDbCircle
 10
9.500000226897807
 20
-77.00000133514399
 30
0.0
 40
1.5
100
AcDbArc
 50
90.0
 51
270.0
  0
LINE
  5
247
330
1F
100
AcDbEntity
  8
0 (1) (1)
  6
K5LT32768
 62
     5
420
      255
370
    60
100
AcDbLine
 10
15.5
 20
-69.50000133514396
 30
0.0
 11
15.5
 21
-70.75000108429549
 31
0.0
  0
LINE
  5
248
330
1F
100
AcDbEntity
  8
0 (1) (1)
  6
K5LT32770
 62
     5
420
      255
370
    60
100
AcDbLine
 10
-19.0
 20
-34.00000152587886
 30
0.0
 11
-19.0
 21
-46.00000152587886
 31
0.0
  0
LINE
  5
249
330
1F
100
AcDbEntity
  8
0 (1) (1)
  6
K5LT32770
 62
     5
420
      255
370
    60
100
AcDbLine
 10
-19.0
 20
-46.00000152587886
 30
0.0
 11
-20.0
 21
-46.00000152587886
 31
0.0
  0
LINE
  5
24A
330
1F
100
AcDbEntity
  8
0 (1) (1)
  6
K5LT32770
 62
     5
420
      255
370
    60
100
AcDbLine
 10
19.00000190734865
 20
-34.00000152587886
 30
0.0
 11
19.00000190734865
 21
-46.00000152587886
 31
0.0
  0
LINE
  5
24B
330
1F
100
AcDbEntity
  8
0 (1) (1)
  6
K5LT32770
 62
     5
420
      255
370
    60
100
AcDbLine
 10
19.00000190734865
 20
-46.00000152587886
 30
0.0
 11
20.00000190734865
 21
-46.00000152587886
 31
0.0
  0
LINE
  5
24C
330
1F
100
AcDbEntity
  8
0 (1) (1)
  6
K5LT32768
 62
     5
420
      255
370
    60
100
AcDbLine
 10
20.00000190734865
 20
-54.2000011444091
 30
0.0
 11
20.00000190734865
 21
-46.00000152587886
 31
0.0
  0
LINE
  5
24D
330
1F
100
AcDbEntity
  8
0 (1) (1)
  6
K5LT32770
 62
     5
420
      255
370
    60
100
AcDbLine
 10
5.671572437626909
 20
-52.50000152587886
 30
0.0
 11
-5.671572437626906
 21
-52.50000152587886
 31
0.0
  0
ARC
  5
24E
330
1F
100
AcDbEntity
  8
0 (1) (1)
  6
K5LT32770
 62
     5
420
      255
370
    60
100
AcDbCircle
 10
-5.671572437626906
 20
-51.50000152587886
 30
0.0
 40
1.0
100
AcDbArc
 50
224.9999999999997
 51
270.0
  0
ARC
  5
24F
330
1F
100
AcDbEntity
  8
0 (1) (1)
  6
K5LT32770
 62
     5
420
      255
370
    60
100
AcDbCircle
 10
5.671572437626909
 20
-51.50000152587886
 30
0.0
 40
1.0
100
AcDbArc
 50
270.0
 51
315.0000000000004
  0
LINE
  5
250
330
1F
100
AcDbEntity
  8
0 (1) (1)
  6
K5LT32770
 62
     5
420
      255
370
    60
100
AcDbLine
 10
-16.0
 20
34.05000114440919
 30
0.0
 11
-16.0
 21
45.95000114440919
 31
0.0
  0
ARC
  5
251
330
1F
100
AcDbEntity
  8
0 (1) (1)
  6
K5LT32770
 62
     5
420
      255
370
    60
100
AcDbCircle
 10
-15.0
 20
34.05000114440919
 30
0.0
 40
1.0
100
AcDbArc
 50
180.0000000000002
 51
270.0
  0
ARC
  5
252
330
1F
100
AcDbEntity
  8
0 (1) (1)
  6
K5LT32770
 62
     5
420
      255
370
    60
100
AcDbCircle
 10
-15.0
 20
45.95000114440919
 30
0.0
 40
1.000000000000002
100
AcDbArc
 50
90.0
 51
179.9999999999999
  0
LINE
  5
253
330
1F
100
AcDbEntity
  8
0 (1) (1)
  6
K5LT32770
 62
     5
420
      255
370
    60
100
AcDbLine
 10
-12.04999841796391
 20
33.05000114440919
 30
0.0
 11
-15.0
 21
33.05000114440919
 31
0.0
  0
LINE
  5
254
330
1F
100
AcDbEntity
  8
0 (1) (1)
  6
K5LT32770
 62
     5
420
      255
370
    60
100
AcDbLine
 10
-12.05000070678227
 20
46.95000114440919
 30
0.0
 11
-15.0
 21
46.95000114440919
 31
0.0
  0
ARC
  5
255
330
1F
100
AcDbEntity
  8
0 (1) (1)
  6
K5LT32770
 62
     5
420
      255
370
    60
100
AcDbCircle
 10
-12.05000070678227
 20
47.95000114440919
 30
0.0
 40
1.0
100
AcDbArc
 50
270.0
 51
315.0000000000001
  0
ARC
  5
256
330
1F
100
AcDbEntity
  8
0 (1) (1)
  6
K5LT32770
 62
     5
420
      255
370
    60
100
AcDbCircle
 10
-12.04999841796391
 20
32.05000114440919
 30
0.0
 40
1.0
100
AcDbArc
 50
45.00000000000004
 51
90.0
  0
LINE
  5
257
330
1F
100
AcDbEntity
  8
0 (1) (1)
  6
K5LT32770
 62
     5
420
      255
370
    60
100
AcDbLine
 10
-6.378679218813453
 20
27.79289550763183
 30
0.0
 11
-11.34289163677736
 21
32.75710792559574
 31
0.0
  0
LINE
  5
258
330
1F
100
AcDbEntity
  8
0 (1) (1)
  6
K5LT32770
 62
     5
420
      255
370
    60
100
AcDbLine
 10
-6.378679218813453
 20
52.20710907000493
 30
0.0
 11
-11.34289392559572
 21
47.24289436322265
 31
0.0
  0
LINE
  5
259
330
1F
100
AcDbEntity
  8
0 (1) (1)
  6
K5LT32770
 62
     5
420
      255
370
    60
100
AcDbLine
 10
-16.0
 20
-5.950001144409181
 30
0.0
 11
-16.0
 21
5.949998855590811
 31
0.0
  0
ARC
  5
25A
330
1F
100
AcDbEntity
  8
0 (1) (1)
  6
K5LT32770
 62
     5
420
      255
370
    60
100
AcDbCircle
 10
-15.0
 20
-5.950001144409178
 30
0.0
 40
1.0
100
AcDbArc
 50
180.0000000000002
 51
270.0
  0
ARC
  5
25B
330
1F
100
AcDbEntity
  8
0 (1) (1)
  6
K5LT32770
 62
     5
420
      255
370
    60
100
AcDbCircle
 10
-15.0
 20
5.94999885559081
 30
0.0
 40
1.000000000000002
100
AcDbArc
 50
90.0
 51
179.9999999999999
  0
LINE
  5
25C
330
1F
100
AcDbEntity
  8
0 (1) (1)
  6
K5LT32770
 62
     5
420
      255
370
    60
100
AcDbLine
 10
-12.04999841796391
 20
-6.950001144409182
 30
0.0
 11
-15.0
 21
-6.950001144409182
 31
0.0
  0
LINE
  5
25D
330
1F
100
AcDbEntity
  8
0 (1) (1)
  6
K5LT32770
 62
     5
420
      255
370
    60
100
AcDbLine
 10
-12.05000070678227
 20
6.949998855590813
 30
0.0
 11
-15.0
 21
6.949998855590813
 31
0.0
  0
ARC
  5
25E
330
1F
100
AcDbEntity
  8
0 (1) (1)
  6
K5LT32770
 62
     5
420
      255
370
    60
100
AcDbCircle
 10
-12.05000070678227
 20
7.949998855590813
 30
0.0
 40
1.0
100
AcDbArc
 50
270.0
 51
315.0000000000001
  0
ARC
  5
25F
330
1F
100
AcDbEntity
  8
0 (1) (1)
  6
K5LT32770
 62
     5
420
      255
370
    60
100
AcDbCircle
 10
-12.04999841796391
 20
-7.950001144409182
 30
0.0
 40
1.0
100
AcDbArc
 50
45.00000000000004
 51
90.0
  0
LINE
  5
260
330
1F
100
AcDbEntity
  8
0 (1) (1)
  6
K5LT32770
 62
     5
420
      255
370
    60
100
AcDbLine
 10
-6.378679218813453
 20
-12.20710678118654
 30
0.0
 11
-11.34289163677736
 21
-7.242894363222635
 31
0.0
  0
LINE
  5
261
330
1F
100
AcDbEntity
  8
0 (1) (1)
  6
K5LT32770
 62
     5
420
      255
370
    60
100
AcDbLine
 10
-6.378679218813453
 20
12.20710678118655
 30
0.0
 11
-11.34289392559572
 21
7.242892074404268
 31
0.0
  0
LINE
  5
262
330
1F
100
AcDbEntity
  8
0 (1) (1)
  6
K5LT32770
 62
     5
420
      255
370
    60
100
AcDbLine
 10
-16.0
 20
-45.95000267028804
 30
0.0
 11
-16.0
 21
-34.05000267028805
 31
0.0
  0
ARC
  5
263
330
1F
100
AcDbEntity
  8
0 (1) (1)
  6
K5LT32770
 62
     5
420
      255
370
    60
100
AcDbCircle
 10
-15.0
 20
-45.95000267028804
 30
0.0
 40
1.0
100
AcDbArc
 50
180.0000000000002
 51
270.0
  0
ARC
  5
264
330
1F
100
AcDbEntity
  8
0 (1) (1)
  6
K5LT32770
 62
     5
420
      255
370
    60
100
AcDbCircle
 10
-15.0
 20
-34.05000267028805
 30
0.0
 40
1.000000000000002
100
AcDbArc
 50
90.0
 51
179.9999999999999
  0
LINE
  5
265
330
1F
100
AcDbEntity
  8
0 (1) (1)
  6
K5LT32770
 62
     5
420
      255
370
    60
100
AcDbLine
 10
-12.04999841796391
 20
-46.95000267028804
 30
0.0
 11
-15.0
 21
-46.95000267028804
 31
0.0
  0
LINE
  5
266
330
1F
100
AcDbEntity
  8
0 (1) (1)
  6
K5LT32770
 62
     5
420
      255
370
    60
100
AcDbLine
 10
-12.05000070678227
 20
-33.05000267028805
 30
0.0
 11
-15.0
 21
-33.05000267028805
 31
0.0
  0
ARC
  5
267
330
1F
100
AcDbEntity
  8
0 (1) (1)
  6
K5LT32770
 62
     5
420
      255
370
    60
100
AcDbCircle
 10
-12.05000070678227
 20
-32.05000267028805
 30
0.0
 40
1.0
100
AcDbArc
 50
270.0
 51
315.0000000000001
  0
ARC
  5
268
330
1F
100
AcDbEntity
  8
0 (1) (1)
  6
K5LT32770
 62
     5
420
      255
370
    60
100
AcDbCircle
 10
-12.04999841796391
 20
-47.95000267028804
 30
0.0
 40
1.0
100
AcDbArc
 50
45.00000000000004
 51
90.0
  0
LINE
  5
269
330
1F
100
AcDbEntity
  8
0 (1) (1)
  6
K5LT32770
 62
     5
420
      255
370
    60
100
AcDbLine
 10
-6.378679218813453
 20
-52.2071083070654
 30
0.0
 11
-11.34289163677736
 21
-47.2428958891015
 31
0.0
  0
LINE
  5
26A
330
1F
100
AcDbEntity
  8
0 (1) (1)
  6
K5LT32770
 62
     5
420
      255
370
    60
100
AcDbLine
 10
-6.378679218813453
 20
-27.79289474469231
 30
0.0
 11
-11.34289392559572
 21
-32.75710945147459
 31
0.0
  0
LINE
  5
26B
330
1F
100
AcDbEntity
  8
0 (1) (1)
  6
K5LT32770
 62
     5
420
      255
370
    60
100
AcDbLine
 10
16.00000190734865
 20
5.950001144409182
 30
0.0
 11
16.00000190734865
 21
-5.949998855590811
 31
0.0
  0
ARC
  5
26C
330
1F
100
AcDbEntity
  8
0 (1) (1)
  6
K5LT32770
 62
     5
420
      255
370
    60
100
AcDbCircle
 10
15.00000190734865
 20
5.950001144409178
 30
0.0
 40
1.0
100
AcDbArc
 50
0.0
 51
90.0
  0
ARC
  5
26D
330
1F
100
AcDbEntity
  8
0 (1) (1)
  6
K5LT32770
 62
     5
420
      255
370
    60
100
AcDbCircle
 10
15.00000190734865
 20
-5.949998855590811
 30
0.0
 40
1.000000000000002
100
AcDbArc
 50
270.0
 51
0.0
  0
LINE
  5
26E
330
1F
100
AcDbEntity
  8
0 (1) (1)
  6
K5LT32770
 62
     5
420
      255
370
    60
100
AcDbLine
 10
12.05000032531255
 20
6.950001144409182
 30
0.0
 11
15.00000190734865
 21
6.950001144409182
 31
0.0
  0
LINE
  5
26F
330
1F
100
AcDbEntity
  8
0 (1) (1)
  6
K5LT32770
 62
     5
420
      255
370
    60
100
AcDbLine
 10
12.05000261413092
 20
-6.949998855590813
 30
0.0
 11
15.00000190734865
 21
-6.949998855590814
 31
0.0
  0
ARC
  5
270
330
1F
100
AcDbEntity
  8
0 (1) (1)
  6
K5LT32770
 62
     5
420
      255
370
    60
100
AcDbCircle
 10
12.05000261413092
 20
-7.949998855590813
 30
0.0
 40
1.0
100
AcDbArc
 50
90.0
 51
135.0000000000003
  0
ARC
  5
271
330
1F
100
AcDbEntity
  8
0 (1) (1)
  6
K5LT32770
 62
     5
420
      255
370
    60
100
AcDbCircle
 10
12.05000032531255
 20
7.950001144409182
 30
0.0
 40
1.0
100
AcDbArc
 50
225.0
 51
270.0
  0
LINE
  5
272
330
1F
100
AcDbEntity
  8
0 (1) (1)
  6
K5LT32770
 62
     5
420
      255
370
    60
100
AcDbLine
 10
6.3786811261621
 20
12.20710678118654
 30
0.0
 11
11.34289354412601
 21
7.242894363222635
 31
0.0
  0
LINE
  5
273
330
1F
100
AcDbEntity
  8
0 (1) (1)
  6
K5LT32770
 62
     5
420
      255
370
    60
100
AcDbLine
 10
6.3786811261621
 20
-12.20710678118655
 30
0.0
 11
11.34289583294437
 21
-7.242892074404268
 31
0.0
  0
LINE
  5
274
330
1F
100
AcDbEntity
  8
0 (1) (1)
  6
K5LT32770
 62
     5
420
      255
370
    60
100
AcDbLine
 10
16.00000190734865
 20
-34.05000038146968
 30
0.0
 11
16.00000190734865
 21
-45.95000038146967
 31
0.0
  0
ARC
  5
275
330
1F
100
AcDbEntity
  8
0 (1) (1)
  6
K5LT32770
 62
     5
420
      255
370
    60
100
AcDbCircle
 10
15.00000190734865
 20
-34.05000038146969
 30
0.0
 40
1.0
100
AcDbArc
 50
0.0
 51
90.0
  0
ARC
  5
276
330
1F
100
AcDbEntity
  8
0 (1) (1)
  6
K5LT32770
 62
     5
420
      255
370
    60
100
AcDbCircle
 10
15.00000190734865
 20
-45.95000038146967
 30
0.0
 40
1.000000000000002
100
AcDbArc
 50
270.0
 51
0.0
  0
LINE
  5
277
330
1F
100
AcDbEntity
  8
0 (1) (1)
  6
K5LT32770
 62
     5
420
      255
370
    60
100
AcDbLine
 10
12.05000032531255
 20
-33.05000038146968
 30
0.0
 11
15.00000190734865
 21
-33.05000038146968
 31
0.0
  0
LINE
  5
278
330
1F
100
AcDbEntity
  8
0 (1) (1)
  6
K5LT32770
 62
     5
420
      255
370
    60
100
AcDbLine
 10
12.05000261413092
 20
-46.95000038146968
 30
0.0
 11
15.00000190734865
 21
-46.95000038146968
 31
0.0
  0
ARC
  5
279
330
1F
100
AcDbEntity
  8
0 (1) (1)
  6
K5LT32770
 62
     5
420
      255
370
    60
100
AcDbCircle
 10
12.05000261413092
 20
-47.95000038146968
 30
0.0
 40
1.0
100
AcDbArc
 50
90.0
 51
135.0000000000003
  0
ARC
  5
27A
330
1F
100
AcDbEntity
  8
0 (1) (1)
  6
K5LT32770
 62
     5
420
      255
370
    60
100
AcDbCircle
 10
12.05000032531255
 20
-32.05000038146968
 30
0.0
 40
1.0
100
AcDbArc
 50
225.0
 51
270.0
  0
LINE
  5
27B
330
1F
100
AcDbEntity
  8
0 (1) (1)
  6
K5LT32770
 62
     5
420
      255
370
    60
100
AcDbLine
 10
6.3786811261621
 20
-27.79289474469232
 30
0.0
 11
11.34289354412601
 21
-32.75710716265623
 31
0.0
  0
LINE
  5
27C
330
1F
100
AcDbEntity
  8
0 (1) (1)
  6
K5LT32770
 62
     5
420
      255
370
    60
100
AcDbLine
 10
6.3786811261621
 20
-52.20710830706541
 30
0.0
 11
11.34289583294437
 21
-47.24289360028313
 31
0.0
  0
LINE
  5
27D
330
1F
100
AcDbEntity
  8
0 (1) (1)
  6
K5LT32770
 62
     5
420
      255
370
    60
100
AcDbLine
 10
16.00000190734865
 20
45.95000343322756
 30
0.0
 11
16.00000190734865
 21
34.05000343322757
 31
0.0
  0
ARC
  5
27E
330
1F
100
AcDbEntity
  8
0 (1) (1)
  6
K5LT32770
 62
     5
420
      255
370
    60
100
AcDbCircle
 10
15.00000190734865
 20
45.95000343322756
 30
0.0
 40
1.0
100
AcDbArc
 50
0.0
 51
90.0
  0
ARC
  5
27F
330
1F
100
AcDbEntity
  8
0 (1) (1)
  6
K5LT32770
 62
     5
420
      255
370
    60
100
AcDbCircle
 10
15.00000190734865
 20
34.05000343322757
 30
0.0
 40
1.000000000000002
100
AcDbArc
 50
270.0
 51
0.0
  0
LINE
  5
280
330
1F
100
AcDbEntity
  8
0 (1) (1)
  6
K5LT32770
 62
     5
420
      255
370
    60
100
AcDbLine
 10
12.05000032531255
 20
46.95000343322756
 30
0.0
 11
15.00000190734865
 21
46.95000343322756
 31
0.0
  0
LINE
  5
281
330
1F
100
AcDbEntity
  8
0 (1) (1)
  6
K5LT32770
 62
     5
420
      255
370
    60
100
AcDbLine
 10
12.05000261413092
 20
33.05000343322757
 30
0.0
 11
15.00000190734865
 21
33.05000343322757
 31
0.0
  0
ARC
  5
282
330
1F
100
AcDbEntity
  8
0 (1) (1)
  6
K5LT32770
 62
     5
420
      255
370
    60
100
AcDbCircle
 10
12.05000261413092
 20
32.05000343322757
 30
0.0
 40
1.0
100
AcDbArc
 50
90.0
 51
135.0000000000003
  0
ARC
  5
283
330
1F
100
AcDbEntity
  8
0 (1) (1)
  6
K5LT32770
 62
     5
420
      255
370
    60
100
AcDbCircle
 10
12.05000032531255
 20
47.95000343322756
 30
0.0
 40
1.0
100
AcDbArc
 50
225.0
 51
270.0
  0
LINE
  5
284
330
1F
100
AcDbEntity
  8
0 (1) (1)
  6
K5LT32770
 62
     5
420
      255
370
    60
100
AcDbLine
 10
6.3786811261621
 20
52.20710907000492
 30
0.0
 11
11.34289354412601
 21
47.24289665204101
 31
0.0
  0
LINE
  5
285
330
1F
100
AcDbEntity
  8
0 (1) (1)
  6
K5LT32770
 62
     5
420
      255
370
    60
100
AcDbLine
 10
6.3786811261621
 20
27.79289550763183
 30
0.0
 11
11.34289583294437
 21
32.75711021441411
 31
0.0
  0
ENDSEC
  0
SECTION
  2
OBJECTS
  0
DICTIONARY
  5
C
330
0
100
AcDbDictionary
281
     1
  3
ACAD_GROUP
350
D
  3
ACAD_LAYOUT
350
1A
  3
ACAD_MLEADERSTYLE
350
287
  3
ACAD_MLINESTYLE
350
17
  3
ACAD_PLOTSETTINGS
350
19
  3
ACAD_PLOTSTYLENAME
350
E
  3
ACAD_SCALELIST
350
3B
  3
ACAD_TABLESTYLE
350
286
  3
ACAD_VISUALSTYLE
350
2A
  0
DICTIONARY
  5
D
102
{ACAD_REACTORS
330
C
102
}
330
C
100
AcDbDictionary
281
     1
  0
DICTIONARY
  5
1A
102
{ACAD_REACTORS
330
C
102
}
330
C
100
AcDbDictionary
281
     1
  3
Layout1
350
1E
  3
Layout2
350
26
  3
Model
350
22
  0
DICTIONARY
  5
287
102
{ACAD_REACTORS
330
C
102
}
330
C
100
AcDbDictionary
281
     1
  0
DICTIONARY
  5
17
102
{ACAD_REACTORS
330
C
102
}
330
C
100
AcDbDictionary
281
     1
  3
Standard
350
18
  0
DICTIONARY
  5
19
102
{ACAD_REACTORS
330
C
102
}
330
C
100
AcDbDictionary
281
     1
  0
ACDBDICTIONARYWDFLT
  5
E
102
{ACAD_REACTORS
330
C
102
}
330
C
100
AcDbDictionary
281
     1
  3
Normal
350
F
100
AcDbDictionaryWithDefault
340
F
  0
DICTIONARY
  5
3B
102
{ACAD_REACTORS
330
C
102
}
330
C
100
AcDbDictionary
281
     1
  3
A0
350
3C
  3
A1
350
3D
  3
A2
350
3E
  3
A3
350
3F
  3
A4
350
40
  3
A5
350
41
  3
A6
350
42
  3
A7
350
43
  3
A8
350
44
  3
A9
350
45
  3
B0
350
46
  3
B1
350
47
  3
B2
350
48
  3
B3
350
49
  3
B4
350
4A
  3
B5
350
4B
  3
B6
350
4C
  3
B7
350
4D
  3
B8
350
4E
  3
B9
350
4F
  3
C0
350
50
  3
C1
350
51
  3
C2
350
52
  3
C3
350
53
  3
C4
350
54
  3
C5
350
55
  3
C6
350
56
  3
C7
350
57
  3
C8
350
58
  3
C9
350
59
  3
D0
350
5A
  3
D1
350
5B
  3
D2
350
5C
  0
DICTIONARY
  5
286
102
{ACAD_REACTORS
330
C
102
}
330
C
100
AcDbDictionary
281
     1
  0
DICTIONARY
  5
2A
102
{ACAD_REACTORS
330
C
102
}
330
C
100
AcDbDictionary
281
     1
  3
2dWireframe
350
2F
  3
3D Hidden
350
31
  3
3dWireframe
350
30
  3
Basic
350
32
  3
Brighten
350
36
  3
ColorChange
350
3A
  3
Conceptual
350
34
  3
Dim
350
35
  3
Facepattern
350
39
  3
Flat
350
2B
  3
FlatWithEdges
350
2C
  3
Gouraud
350
2D
  3
GouraudWithEdges
350
2E
  3
Linepattern
350
38
  3
Realistic
350
33
  3
Thicken
350
37
  0
LAYOUT
  5
1E
102
{ACAD_REACTORS
330
1A
102
}
330
1A
100
AcDbPlotSettings
  1

  2
none_device
  4

  6

 40
0.0
 41
0.0
 42
0.0
 43
0.0
 44
0.0
 45
0.0
 46
0.0
 47
0.0
 48
0.0
 49
0.0
140
0.0
141
0.0
142
1.0
143
1.0
 70
   688
 72
     0
 73
     0
 74
     5
  7

 75
    16
 76
     0
 77
     2
 78
   300
147
1.0
148
0.0
149
0.0
100
AcDbLayout
  1
Layout1
 70
     1
 71
     1
 10
0.0
 20
0.0
 11
420.0
 21
297.0
 12
0.0
 22
0.0
 32
0.0
 14
1.000000000000000E+20
 24
1.000000000000000E+20
 34
1.000000000000000E+20
 15
-1.000000000000000E+20
 25
-1.000000000000000E+20
 35
-1.000000000000000E+20
146
0.0
 13
0.0
 23
0.0
 33
0.0
 16
1.0
 26
0.0
 36
0.0
 17
0.0
 27
1.0
 37
0.0
 76
     0
330
1B
  0
LAYOUT
  5
26
102
{ACAD_REACTORS
330
1A
102
}
330
1A
100
AcDbPlotSettings
  1

  2
none_device
  4

  6

 40
0.0
 41
0.0
 42
0.0
 43
0.0
 44
0.0
 45
0.0
 46
0.0
 47
0.0
 48
0.0
 49
0.0
140
0.0
141
0.0
142
1.0
143
1.0
 70
   688
 72
     0
 73
     0
 74
     5
  7

 75
    16
 76
     0
 77
     2
 78
   300
147
1.0
148
0.0
149
0.0
100
AcDbLayout
  1
Layout2
 70
     1
 71
     2
 10
0.0
 20
0.0
 11
0.0
 21
0.0
 12
0.0
 22
0.0
 32
0.0
 14
0.0
 24
0.0
 34
0.0
 15
0.0
 25
0.0
 35
0.0
146
0.0
 13
0.0
 23
0.0
 33
0.0
 16
1.0
 26
0.0
 36
0.0
 17
0.0
 27
1.0
 37
0.0
 76
     0
330
23
  0
LAYOUT
  5
22
102
{ACAD_REACTORS
330
1A
102
}
330
1A
100
AcDbPlotSettings
  1

  2
none_device
  4

  6

 40
0.0
 41
0.0
 42
0.0
 43
0.0
 44
0.0
 45
0.0
 46
0.0
 47
0.0
 48
0.0
 49
0.0
140
0.0
141
0.0
142
1.0
143
1.0
 70
  1712
 72
     0
 73
     0
 74
     0
  7

 75
     0
 76
     0
 77
     2
 78
   300
147
1.0
148
0.0
149
0.0
100
AcDbLayout
  1
Model
 70
     1
 71
     0
 10
0.0
 20
0.0
 11
420.0
 21
297.0
 12
0.0
 22
0.0
 32
0.0
 14
1.000000000000000E+20
 24
1.000000000000000E+20
 34
1.000000000000000E+20
 15
-1.000000000000000E+20
 25
-1.000000000000000E+20
 35
-1.000000000000000E+20
146
0.0
 13
0.0
 23
0.0
 33
0.0
 16
1.0
 26
0.0
 36
0.0
 17
0.0
 27
1.0
 37
0.0
 76
     0
330
1F
331
29
  0
MLINESTYLE
  5
18
102
{ACAD_REACTORS
330
17
102
}
330
17
100
AcDbMlineStyle
  2
Standard
 70
     0
  3

 62
   256
 51
90.0
 52
90.0
 71
     2
 49
0.5
 62
   256
  6
BYLAYER
 49
-0.5
 62
   256
  6
BYLAYER
  0
ACDBPLACEHOLDER
  5
F
102
{ACAD_REACTORS
330
E
102
}
330
E
  0
SCALE
  5
3C
102
{ACAD_REACTORS
330
3B
102
}
330
3B
100
AcDbScale
 70
     0
300
1:1
140
1.0
141
1.0
290
     1
  0
SCALE
  5
3D
102
{ACAD_REACTORS
330
3B
102
}
330
3B
100
AcDbScale
 70
     0
300
1:2
140
1.0
141
2.0
290
     0
  0
SCALE
  5
3E
102
{ACAD_REACTORS
330
3B
102
}
330
3B
100
AcDbScale
 70
     0
300
1:4
140
1.0
141
4.0
290
     0
  0
SCALE
  5
3F
102
{ACAD_REACTORS
330
3B
102
}
330
3B
100
AcDbScale
 70
     0
300
1:5
140
1.0
141
5.0
290
     0
  0
SCALE
  5
40
102
{ACAD_REACTORS
330
3B
102
}
330
3B
100
AcDbScale
 70
     0
300
1:8
140
1.0
141
8.0
290
     0
  0
SCALE
  5
41
102
{ACAD_REACTORS
330
3B
102
}
330
3B
100
AcDbScale
 70
     0
300
1:10
140
1.0
141
10.0
290
     0
  0
SCALE
  5
42
102
{ACAD_REACTORS
330
3B
102
}
330
3B
100
AcDbScale
 70
     0
300
1:16
140
1.0
141
16.0
290
     0
  0
SCALE
  5
43
102
{ACAD_REACTORS
330
3B
102
}
330
3B
100
AcDbScale
 70
     0
300
1:20
140
1.0
141
20.0
290
     0
  0
SCALE
  5
44
102
{ACAD_REACTORS
330
3B
102
}
330
3B
100
AcDbScale
 70
     0
300
1:30
140
1.0
141
30.0
290
     0
  0
SCALE
  5
45
102
{ACAD_REACTORS
330
3B
102
}
330
3B
100
AcDbScale
 70
     0
300
1:40
140
1.0
141
40.0
290
     0
  0
SCALE
  5
46
102
{ACAD_REACTORS
330
3B
102
}
330
3B
100
AcDbScale
 70
     0
300
1:50
140
1.0
141
50.0
290
     0
  0
SCALE
  5
47
102
{ACAD_REACTORS
330
3B
102
}
330
3B
100
AcDbScale
 70
     0
300
1:100
140
1.0
141
100.0
290
     0
  0
SCALE
  5
48
102
{ACAD_REACTORS
330
3B
102
}
330
3B
100
AcDbScale
 70
     0
300
2:1
140
2.0
141
1.0
290
     0
  0
SCALE
  5
49
102
{ACAD_REACTORS
330
3B
102
}
330
3B
100
AcDbScale
 70
     0
300
4:1
140
4.0
141
1.0
290
     0
  0
SCALE
  5
4A
102
{ACAD_REACTORS
330
3B
102
}
330
3B
100
AcDbScale
 70
     0
300
8:1
140
8.0
141
1.0
290
     0
  0
SCALE
  5
4B
102
{ACAD_REACTORS
330
3B
102
}
330
3B
100
AcDbScale
 70
     0
300
10:1
140
10.0
141
1.0
290
     0
  0
SCALE
  5
4C
102
{ACAD_REACTORS
330
3B
102
}
330
3B
100
AcDbScale
 70
     0
300
100:1
140
100.0
141
1.0
290
     0
  0
SCALE
  5
4D
102
{ACAD_REACTORS
330
3B
102
}
330
3B
100
AcDbScale
 70
     0
300
1/128" = 1'-0"
140
0.0078125
141
12.0
290
     0
  0
SCALE
  5
4E
102
{ACAD_REACTORS
330
3B
102
}
330
3B
100
AcDbScale
 70
     0
300
1/64" = 1'-0"
140
0.015625
141
12.0
290
     0
  0
SCALE
  5
4F
102
{ACAD_REACTORS
330
3B
102
}
330
3B
100
AcDbScale
 70
     0
300
1/32" = 1'-0"
140
0.03125
141
12.0
290
     0
  0
SCALE
  5
50
102
{ACAD_REACTORS
330
3B
102
}
330
3B
100
AcDbScale
 70
     0
300
1/16" = 1'-0"
140
0.0625
141
12.0
290
     0
  0
SCALE
  5
51
102
{ACAD_REACTORS
330
3B
102
}
330
3B
100
AcDbScale
 70
     0
300
3/32" = 1'-0"
140
0.09375
141
12.0
290
     0
  0
SCALE
  5
52
102
{ACAD_REACTORS
330
3B
102
}
330
3B
100
AcDbScale
 70
     0
300
1/8" = 1'-0"
140
0.125
141
12.0
290
     0
  0
SCALE
  5
53
102
{ACAD_REACTORS
330
3B
102
}
330
3B
100
AcDbScale
 70
     0
300
3/16" = 1'-0"
140
0.1875
141
12.0
290
     0
  0
SCALE
  5
54
102
{ACAD_REACTORS
330
3B
102
}
330
3B
100
AcDbScale
 70
     0
300
1/4" = 1'-0"
140
0.25
141
12.0
290
     0
  0
SCALE
  5
55
102
{ACAD_REACTORS
330
3B
102
}
330
3B
100
AcDbScale
 70
     0
300
3/8" = 1'-0"
140
0.375
141
12.0
290
     0
  0
SCALE
  5
56
102
{ACAD_REACTORS
330
3B
102
}
330
3B
100
AcDbScale
 70
     0
300
1/2" = 1'-0"
140
0.5
141
12.0
290
     0
  0
SCALE
  5
57
102
{ACAD_REACTORS
330
3B
102
}
330
3B
100
AcDbScale
 70
     0
300
3/4" = 1'-0"
140
0.75
141
12.0
290
     0
  0
SCALE
  5
58
102
{ACAD_REACTORS
330
3B
102
}
330
3B
100
AcDbScale
 70
     0
300
1" = 1'-0"
140
1.0
141
12.0
290
     0
  0
SCALE
  5
59
102
{ACAD_REACTORS
330
3B
102
}
330
3B
100
AcDbScale
 70
     0
300
1-1/2" = 1'-0"
140
1.5
141
12.0
290
     0
  0
SCALE
  5
5A
102
{ACAD_REACTORS
330
3B
102
}
330
3B
100
AcDbScale
 70
     0
300
3" = 1'-0"
140
3.0
141
12.0
290
     0
  0
SCALE
  5
5B
102
{ACAD_REACTORS
330
3B
102
}
330
3B
100
AcDbScale
 70
     0
300
6" = 1'-0"
140
6.0
141
12.0
290
     0
  0
SCALE
  5
5C
102
{ACAD_REACTORS
330
3B
102
}
330
3B
100
AcDbScale
 70
     0
300
1'-0" = 1'-0"
140
12.0
141
12.0
290
     0
  0
VISUALSTYLE
  5
2F
102
{ACAD_REACTORS
330
2A
102
}
330
2A
100
AcDbVisualStyle
  2
2dWireframe
 70
     4
 71
     0
 72
     2
 73
     0
 90
        0
 40
-0.6
 41
-30.0
 62
     5
 63
     7
421
 16777215
 74
     1
 91
        4
 64
     7
 65
   257
 75
     1
175
     1
 42
1.0
 92
        0
 66
   257
 43
1.0
 76
     1
 77
     6
 78
     2
 67
     7
 79
     5
170
     0
171
     0
290
     0
174
     0
 93
        1
 44
0.0
173
     0
291
     0
 45
0.0
  0
VISUALSTYLE
  5
31
102
{ACAD_REACTORS
330
2A
102
}
330
2A
100
AcDbVisualStyle
  2
3D Hidden
 70
     6
 71
     1
 72
     2
 73
     2
 90
        0
 40
-0.6
 41
-30.0
 62
     5
 63
     7
421
 16777215
 74
     2
 91
        2
 64
     7
 65
   257
 75
     2
175
     1
 42
40.0
 92
        0
 66
   257
 43
1.0
 76
     1
 77
     6
 78
     2
 67
     7
 79
     3
170
     0
171
     0
290
     0
174
     0
 93
        1
 44
0.0
173
     0
291
     0
 45
0.0
  0
VISUALSTYLE
  5
30
102
{ACAD_REACTORS
330
2A
102
}
330
2A
100
AcDbVisualStyle
  2
3dWireframe
 70
     5
 71
     0
 72
     2
 73
     0
 90
        0
 40
-0.6
 41
-30.0
 62
     5
 63
     7
421
 16777215
 74
     1
 91
        4
 64
     7
 65
   257
 75
     1
175
     1
 42
1.0
 92
        0
 66
   257
 43
1.0
 76
     1
 77
     6
 78
     2
 67
     7
 79
     5
170
     0
171
     0
290
     0
174
     0
 93
        1
 44
0.0
173
     0
291
     0
 45
0.0
  0
VISUALSTYLE
  5
32
102
{ACAD_REACTORS
330
2A
102
}
330
2A
100
AcDbVisualStyle
  2
Basic
 70
     7
 71
     1
 72
     0
 73
     1
 90
        0
 40
-0.6
 41
-30.0
 62
     5
 63
     7
421
 16777215
 74
     0
 91
        4
 64
     7
 65
   257
 75
     1
175
     1
 42
1.0
 92
        8
 66
     7
 43
1.0
 76
     1
 77
     6
 78
     2
 67
     7
 79
     5
170
     0
171
     0
290
     0
174
     0
 93
        1
 44
0.0
173
     0
291
     1
 45
0.0
  0
VISUALSTYLE
  5
36
102
{ACAD_REACTORS
330
2A
102
}
330
2A
100
AcDbVisualStyle
  2
Brighten
 70
    12
 71
     2
 72
     2
 73
     0
 90
        0
 40
-0.6
 41
-30.0
 62
     5
 63
     7
421
 16777215
 74
     1
 91
        4
 64
     7
 65
   257
 75
     1
175
     1
 42
1.0
 92
        8
 66
     7
 43
1.0
 76
     1
 77
     6
 78
     2
 67
     7
 79
     5
170
     0
171
     0
290
     0
174
     0
 93
        1
 44
50.0
173
     0
291
     1
 45
0.0
  0
VISUALSTYLE
  5
3A
102
{ACAD_REACTORS
330
2A
102
}
330
2A
100
AcDbVisualStyle
  2
ColorChange
 70
    16
 71
     2
 72
     2
 73
     3
 90
        0
 40
-0.6
 41
-30.0
 62
     5
 63
     8
421
  8421504
 74
     1
 91
        4
 64
     7
 65
   257
 75
     1
175
     1
 42
1.0
 92
        8
 66
     8
424
  8421504
 43
1.0
 76
     1
 77
     6
 78
     2
 67
     7
 79
     5
170
     0
171
     0
290
     0
174
     0
 93
        1
 44
0.0
173
     0
291
     1
 45
0.0
  0
VISUALSTYLE
  5
34
102
{ACAD_REACTORS
330
2A
102
}
330
2A
100
AcDbVisualStyle
  2
Conceptual
 70
     9
 71
     3
 72
     2
 73
     0
 90
        0
 40
-0.6
 41
-30.0
 62
     5
 63
     7
421
 16777215
 74
     2
 91
        2
 64
     7
 65
   257
 75
     1
175
     1
 42
40.0
 92
        8
 66
     7
 43
1.0
 76
     1
 77
     6
 78
     2
 67
     7
 79
     3
170
     0
171
     0
290
     0
174
     0
 93
        1
 44
0.0
173
     0
291
     0
 45
0.0
  0
VISUALSTYLE
  5
35
102
{ACAD_REACTORS
330
2A
102
}
330
2A
100
AcDbVisualStyle
  2
Dim
 70
    11
 71
     2
 72
     2
 73
     0
 90
        0
 40
-0.6
 41
-30.0
 62
     5
 63
     7
421
 16777215
 74
     1
 91
        4
 64
     7
 65
   257
 75
     1
175
     1
 42
1.0
 92
        8
 66
     7
 43
1.0
 76
     1
 77
     6
 78
     2
 67
     7
 79
     5
170
     0
171
     0
290
     0
174
     0
 93
        1
 44
-50.0
173
     0
291
     1
 45
0.0
  0
VISUALSTYLE
  5
39
102
{ACAD_REACTORS
330
2A
102
}
330
2A
100
AcDbVisualStyle
  2
Facepattern
 70
    15
 71
     2
 72
     2
 73
     0
 90
        0
 40
-0.6
 41
-30.0
 62
     5
 63
     7
421
 16777215
 74
     1
 91
        4
 64
     7
 65
   257
 75
     1
175
     1
 42
1.0
 92
        8
 66
     7
 43
1.0
 76
     1
 77
     6
 78
     2
 67
     7
 79
     5
170
     0
171
     0
290
     0
174
     0
 93
        1
 44
0.0
173
     0
291
     1
 45
0.0
  0
VISUALSTYLE
  5
2B
102
{ACAD_REACTORS
330
2A
102
}
330
2A
100
AcDbVisualStyle
  2
Flat
 70
     0
 71
     2
 72
     1
 73
     1
 90
        2
 40
-0.6
 41
30.0
 62
     5
 63
     7
421
 16777215
 74
     0
 91
        4
 64
     7
 65
   257
 75
     1
175
     1
 42
1.0
 92
        8
 66
     7
 43
1.0
 76
     1
 77
     6
 78
     2
 67
     7
 79
     5
170
     0
171
     0
290
     0
174
     0
 93
       13
 44
0.0
173
     0
291
     1
 45
0.0
  0
VISUALSTYLE
  5
2C
102
{ACAD_REACTORS
330
2A
102
}
330
2A
100
AcDbVisualStyle
  2
FlatWithEdges
 70
     1
 71
     2
 72
     1
 73
     1
 90
        2
 40
-0.6
 41
30.0
 62
     5
 63
     7
421
 16777215
 74
     1
 91
        4
 64
     7
 65
   257
 75
     1
175
     1
 42
1.0
 92
        0
 66
   257
 43
1.0
 76
     1
 77
     6
 78
     2
 67
     7
 79
     5
170
     0
171
     0
290
     0
174
     0
 93
       13
 44
0.0
173
     0
291
     1
 45
0.0
  0
VISUALSTYLE
  5
2D
102
{ACAD_REACTORS
330
2A
102
}
330
2A
100
AcDbVisualStyle
  2
Gouraud
 70
     2
 71
     2
 72
     2
 73
     1
 90
        2
 40
-0.6
 41
30.0
 62
     5
 63
     7
421
 16777215
 74
     0
 91
        4
 64
     7
 65
   257
 75
     1
175
     1
 42
1.0
 92
        0
 66
     7
 43
1.0
 76
     1
 77
     6
 78
     2
 67
     7
 79
     5
170
     0
171
     0
290
     0
174
     0
 93
       13
 44
0.0
173
     0
291
     1
 45
0.0
  0
VISUALSTYLE
  5
2E
102
{ACAD_REACTORS
330
2A
102
}
330
2A
100
AcDbVisualStyle
  2
GouraudWithEdges
 70
     3
 71
     2
 72
     2
 73
     1
 90
        2
 40
-0.6
 41
30.0
 62
     5
 63
     7
421
 16777215
 74
     1
 91
        4
 64
     7
 65
   257
 75
     1
175
     1
 42
1.0
 92
        0
 66
   257
 43
1.0
 76
     1
 77
     6
 78
     2
 67
     7
 79
     5
170
     0
171
     0
290
     0
174
     0
 93
       13
 44
0.0
173
     0
291
     1
 45
0.0
  0
VISUALSTYLE
  5
38
102
{ACAD_REACTORS
330
2A
102
}
330
2A
100
AcDbVisualStyle
  2
Linepattern
 70
    14
 71
     2
 72
     2
 73
     0
 90
        0
 40
-0.6
 41
-30.0
 62
     5
 63
     7
421
 16777215
 74
     1
 91
        4
 64
     7
 65
   257
 75
     7
175
     7
 42
1.0
 92
        8
 66
     7
 43
1.0
 76
     1
 77
     6
 78
     2
 67
     7
 79
     5
170
     0
171
     0
290
     0
174
     0
 93
        1
 44
0.0
173
     0
291
     1
 45
0.0
  0
VISUALSTYLE
  5
33
102
{ACAD_REACTORS
330
2A
102
}
330
2A
100
AcDbVisualStyle
  2
Realistic
 70
     8
 71
     2
 72
     2
 73
     0
 90
        0
 40
-0.6
 41
-30.0
 62
     5
 63
     7
421
 16777215
 74
     1
 91
        0
 64
     7
 65
   257
 75
     1
175
     1
 42
1.0
 92
        8
 66
     8
424
  7895160
 43
1.0
 76
     1
 77
     6
 78
     2
 67
     7
 79
     5
170
     0
171
     0
290
     0
174
     0
 93
       13
 44
0.0
173
     0
291
     0
 45
0.0
  0
VISUALSTYLE
  5
37
102
{ACAD_REACTORS
330
2A
102
}
330
2A
100
AcDbVisualStyle
  2
Thicken
 70
    13
 71
     2
 72
     2
 73
     0
 90
        0
 40
-0.6
 41
-30.0
 62
     5
 63
     7
421
 16777215
 74
     1
 91
        4
 64
     7
 65
   257
 75
     1
175
     1
 42
1.0
 92
       12
 66
     7
 43
1.0
 76
     1
 77
     6
 78
     2
 67
     7
 79
     5
170
     0
171
     0
290
     0
174
     0
 93
        1
 44
0.0
173
     0
291
     1
 45
0.0
  0
ENDSEC
  0
EOF
